  0
SECTION
  2
HEADER
  9
$ACADVER
  1
AC1009
  9
$INSBASE
 10
0.0
 20
0.0
 30
0.0
  9
$EXTMIN
 10
-80.010985489947416
 20
-131.71201227911089
 30
-0.0015258207003583
  9
$EXTMAX
 10
280.01098716632811
 20
403.5481165140169
 30
0.0000000349246037
  9
$LIMMIN
 10
0.0
 20
0.0
  9
$LIMMAX
 10
0.0
 20
0.0
  9
$ORTHOMODE
 70
     0
  9
$REGENMODE
 70
     1
  9
$FILLMODE
 70
     1
  9
$QTEXTMODE
 70
     0
  9
$MIRRTEXT
 70
     1
  9
$DRAGMODE
 70
     2
  9
$LTSCALE
 40
10.16
  9
$OSMODE
 70
   231
  9
$ATTMODE
 70
     1
  9
$TEXTSIZE
 40
0.0
  9
$TRACEWID
 40
1.0
  9
$TEXTSTYLE
  7
STANDARD
  9
$CLAYER
  8
DATA
  9
$CELTYPE
  6
BYLAYER
  9
$CECOLOR
 62
   256
  9
$DIMSCALE
 40
1.0
  9
$DIMASZ
 40
0.18
  9
$DIMEXO
 40
0.0625
  9
$DIMDLI
 40
0.38
  9
$DIMRND
 40
0.0
  9
$DIMDLE
 40
0.0
  9
$DIMEXE
 40
0.18
  9
$DIMTP
 40
0.0
  9
$DIMTM
 40
0.0
  9
$DIMTXT
 40
0.18
  9
$DIMCEN
 40
0.09
  9
$DIMTSZ
 40
0.0
  9
$DIMTOL
 70
     0
  9
$DIMLIM
 70
     0
  9
$DIMTIH
 70
     1
  9
$DIMTOH
 70
     1
  9
$DIMSE1
 70
     0
  9
$DIMSE2
 70
     0
  9
$DIMTAD
 70
     0
  9
$DIMZIN
 70
     0
  9
$DIMBLK
  1

  9
$DIMASO
 70
     1
  9
$DIMSHO
 70
     1
  9
$DIMPOST
  1

  9
$DIMAPOST
  1

  9
$DIMALT
 70
     0
  9
$DIMALTD
 70
     2
  9
$DIMALTF
 40
25.399999999999999
  9
$DIMLFAC
 40
1.0
  9
$DIMTOFL
 70
     0
  9
$DIMTVP
 40
0.0
  9
$DIMTIX
 70
     0
  9
$DIMSOXD
 70
     0
  9
$DIMSAH
 70
     0
  9
$DIMBLK1
  1

  9
$DIMBLK2
  1

  9
$DIMSTYLE
  2
STANDARD
  9
$DIMCLRD
 70
     0
  9
$DIMCLRE
 70
     0
  9
$DIMCLRT
 70
     0
  9
$DIMTFAC
 40
1.0
  9
$DIMGAP
 40
0.09
  9
$LUNITS
 70
     2
  9
$LUPREC
 70
     4
  9
$SKETCHINC
 40
0.1
  9
$FILLETRAD
 40
0.0
  9
$AUNITS
 70
     0
  9
$AUPREC
 70
     0
  9
$MENU
  1
acad
  9
$ELEVATION
 40
0.0
  9
$PELEVATION
 40
0.0
  9
$THICKNESS
 40
0.0
  9
$LIMCHECK
 70
     0
  9
$BLIPMODE
 70
     0
  9
$CHAMFERA
 40
0.0
  9
$CHAMFERB
 40
0.0
  9
$SKPOLY
 70
     0
  9
$TDCREATE
 40
2455013.7944444451
  9
$TDUPDATE
 40
2455013.796144757
  9
$TDINDWG
 40
0.00044375
  9
$TDUSRTIMER
 40
0.0004435764
  9
$USRTIMER
 70
     1
  9
$ANGBASE
 50
0.0
  9
$ANGDIR
 70
     0
  9
$PDMODE
 70
     1
  9
$PDSIZE
 40
-2.0
  9
$PLINEWID
 40
0.0
  9
$COORDS
 70
     1
  9
$SPLFRAME
 70
     0
  9
$SPLINETYPE
 70
     6
  9
$SPLINESEGS
 70
     8
  9
$ATTDIA
 70
     0
  9
$ATTREQ
 70
     1
  9
$HANDLING
 70
     1
  9
$HANDSEED
  5
405
  9
$SURFTAB1
 70
     6
  9
$SURFTAB2
 70
     6
  9
$SURFTYPE
 70
     6
  9
$SURFU
 70
     6
  9
$SURFV
 70
     6
  9
$UCSNAME
  2

  9
$UCSORG
 10
0.0
 20
0.0
 30
0.0
  9
$UCSXDIR
 10
1.0
 20
0.0
 30
0.0
  9
$UCSYDIR
 10
0.0
 20
1.0
 30
0.0
  9
$PUCSNAME
  2

  9
$PUCSORG
 10
0.0
 20
0.0
 30
0.0
  9
$PUCSXDIR
 10
1.0
 20
0.0
 30
0.0
  9
$PUCSYDIR
 10
0.0
 20
1.0
 30
0.0
  9
$USERI1
 70
     0
  9
$USERI2
 70
     0
  9
$USERI3
 70
     0
  9
$USERI4
 70
     0
  9
$USERI5
 70
     0
  9
$USERR1
 40
0.0
  9
$USERR2
 40
0.0
  9
$USERR3
 40
0.0
  9
$USERR4
 40
0.0
  9
$USERR5
 40
0.0
  9
$WORLDVIEW
 70
     1
  9
$SHADEDGE
 70
     3
  9
$SHADEDIF
 70
    70
  9
$TILEMODE
 70
     1
  9
$MAXACTVP
 70
    64
  9
$PLIMCHECK
 70
     0
  9
$PEXTMIN
 10
1.0000000000000000E+020
 20
1.0000000000000000E+020
 30
1.0000000000000000E+020
  9
$PEXTMAX
 10
-1.0000000000000000E+020
 20
-1.0000000000000000E+020
 30
-1.0000000000000000E+020
  9
$PLIMMIN
 10
0.0
 20
0.0
  9
$PLIMMAX
 10
12.0
 20
9.0
  9
$UNITMODE
 70
     0
  9
$VISRETAIN
 70
     0
  9
$PLINEGEN
 70
     1
  9
$PSLTSCALE
 70
     0
  0
ENDSEC
  0
SECTION
  2
TABLES
  0
TABLE
  2
VPORT
 70
     1
  0
VPORT
  2
*ACTIVE
 70
     0
 10
0.0
 20
0.0
 11
1.0
 21
1.0
 12
100.0000008381904
 22
135.91805211745299
 13
0.0
 23
0.0
 14
1.0
 24
1.0
 15
0.0
 25
0.0
 16
0.0
 26
0.0
 36
1.0
 17
0.0
 27
0.0
 37
0.0
 40
539.20069415847615
 41
1.961916461916462
 42
50.0
 43
0.0
 44
0.0
 50
0.0
 51
0.0
 71
     0
 72
  2000
 73
     1
 74
     1
 75
     0
 76
     0
 77
     0
 78
     0
  0
ENDTAB
  0
TABLE
  2
LTYPE
 70
    11
  0
LTYPE
  2
CONTINUOUS
 70
     0
  3
Solid line
 72
    65
 73
     0
 40
0.0
  0
ENDTAB
  0
TABLE
  2
LAYER
 70
     6
  0
LAYER
  2
0
 70
     0
 62
     7
  6
CONTINUOUS
  0
LAYER
  2
DATA
 70
     0
 62
     7
  6
CONTINUOUS
  0
LAYER
  2
HIBINO-BASE
 70
     0
 62
     7
  6
CONTINUOUS
  0
LAYER
  2
PATTERN_FILL
 70
     0
 62
     7
  6
CONTINUOUS
  0
LAYER
  2
SPEC
 70
     0
 62
     7
  6
CONTINUOUS
  0
LAYER
  2
DIMNSIONS
 70
     0
 62
     7
  6
CONTINUOUS
  0
ENDTAB
  0
TABLE
  2
STYLE
 70
     3
  0
STYLE
  2
STANDARD
 70
     0
 40
0.0
 41
1.0
 50
0.0
 71
     0
 42
0.0
  3
txt
  4
BIGFONT.SHX
  0
ENDTAB
  0
TABLE
  2
VIEW
 70
     0
  0
ENDTAB
  0
TABLE
  2
UCS
 70
     0
  0
ENDTAB
  0
TABLE
  2
APPID
 70
     3
  0
APPID
  2
ACAD
 70
     0
  0
APPID
  2
ACADANNOTATIVE
 70
     0
  0
APPID
  2
ACAD_MLEADERVER
 70
     0
  0
ENDTAB
  0
TABLE
  2
DIMSTYLE
 70
     2
  0
DIMSTYLE
  2
STANDARD
 70
     0
  3

  4

  5

  6

  7

 40
1.0
 41
0.18
 42
0.0625
 43
0.38
 44
0.18
 45
0.0
 46
0.0
 47
0.0
 48
0.0
140
0.18
141
0.09
142
0.0
143
25.399999999999999
144
1.0
145
0.0
146
1.0
147
0.09
 71
     0
 72
     0
 73
     1
 74
     1
 75
     0
 76
     0
 77
     0
 78
     0
170
     0
171
     2
172
     0
173
     0
174
     0
175
     0
176
     0
177
     0
178
     0
  0
ENDTAB
  0
ENDSEC
  0
SECTION
  2
BLOCKS
  0
BLOCK
  8
0
  2
$MODEL_SPACE
 70
     0
 10
0.0
 20
0.0
 30
0.0
  3
$MODEL_SPACE
  1

  0
ENDBLK
  5
2D7
  8
0
  0
BLOCK
 67
     1
  8
0
  2
$PAPER_SPACE
 70
     0
 10
0.0
 20
0.0
 30
0.0
  3
$PAPER_SPACE
  1

  0
ENDBLK
  5
2D3
 67
     1
  8
0
  0
ENDSEC
  0
SECTION
  2
ENTITIES
  0
LINE
  5
2D
  8
HIBINO-BASE
  6
CONTINUOUS
 62
     7
 10
-79.999999999999986
 20
403.53181499999999
 30
0.0
 11
279.99999999999989
 21
403.53181499999999
 31
0.0
  0
LINE
  5
2E
  8
HIBINO-BASE
  6
CONTINUOUS
 62
     7
 10
279.99999999999989
 20
-116.46818500000001
 30
0.0
 11
-79.999999999999986
 21
-116.46818500000001
 31
0.0
  0
LINE
  5
2F
  8
HIBINO-BASE
  6
CONTINUOUS
 62
     7
 10
-79.999999999999986
 20
-116.46818500000001
 30
0.0
 11
-79.999999999999986
 21
403.53181499999999
 31
0.0
  0
TEXT
  5
30
  8
HIBINO-BASE
 62
     7
 10
-65.631999999999991
 20
-129.2855405999999
 30
0.0
 40
7.2000883593749991
  1
Hibino Corporation
 41
0.7
 11
-65.631999999999991
 21
-122.0854522406249
 31
0.0
 73
     3
1001
ACADANNOTATIVE
1000
AnnotativeData
1002
{
1070
     1
1070
     0
1002
}
  0
LINE
  5
31
  8
HIBINO-BASE
  6
CONTINUOUS
 62
     7
 10
279.99999999999989
 20
403.53181499999999
 30
0.0
 11
279.99999999999989
 21
-116.46818500000001
 31
0.0
  0
LINE
  5
32
  8
HIBINO-BASE
  6
CONTINUOUS
 62
     7
 10
100.0
 20
-71.468184999999977
 30
0.0
 11
279.99999999999989
 21
-71.468184999999977
 31
0.0
  0
LINE
  5
33
  8
HIBINO-BASE
  6
CONTINUOUS
 62
     7
 10
100.0
 20
-116.46818500000001
 30
0.0
 11
100.0
 21
-71.468184999999977
 31
0.0
  0
TEXT
  5
34
  8
HIBINO-BASE
 62
     7
 10
101.8
 20
-76.485571666666644
 30
0.0
 40
3.2576822916666659
  1
NOTE
 41
0.7
 11
101.8
 21
-73.227889374999975
 31
0.0
 73
     3
1001
ACADANNOTATIVE
1000
AnnotativeData
1002
{
1070
     1
1070
     0
1002
}
  0
LINE
  5
35
  8
HIBINO-BASE
  6
CONTINUOUS
 62
     7
 10
170.0
 20
-116.46818500000001
 30
0.0
 11
170.0
 21
-71.468184999999977
 31
0.0
  0
TEXT
  5
36
  8
HIBINO-BASE
 62
     7
 10
171.7999999999999
 20
-76.485571666666644
 30
0.0
 40
3.2576822916666659
  1
TITLE
 41
0.7
 11
171.7999999999999
 21
-73.227889374999975
 31
0.0
 73
     3
1001
ACADANNOTATIVE
1000
AnnotativeData
1002
{
1070
     1
1070
     0
1002
}
  0
TEXT
  5
37
  8
HIBINO-BASE
 62
     7
 10
200.13677999999999
 20
-129.2855405999999
 30
0.0
 40
7.2000883593749991
  1
ヒビノ株式会社
 41
0.7
 11
200.13677999999999
 21
-122.0854522406249
 31
0.0
 73
     3
1001
ACADANNOTATIVE
1000
AnnotativeData
1002
{
1070
     1
1070
     0
1002
}
  0
LINE
  5
38
  8
HIBINO-BASE
  6
CONTINUOUS
 62
     7
 10
100.0
 20
-96.468184999999963
 30
0.0
 11
279.99999999999989
 21
-96.468184999999963
 31
0.0
  0
TEXT
  5
39
  8
HIBINO-BASE
 62
     7
 10
196.80000000000001
 20
-101.3729316666666
 30
0.0
 40
3.2576822916666659
  1
DRAWN
 41
0.7
 11
196.80000000000001
 21
-98.115249375000005
 31
0.0
 73
     3
1001
ACADANNOTATIVE
1000
AnnotativeData
1002
{
1070
     1
1070
     0
1002
}
  0
TEXT
  5
3A
  8
HIBINO-BASE
 62
     7
 10
146.7999999999999
 20
-101.3729316666666
 30
0.0
 40
3.2576822916666659
  1
DATE
 41
0.7
 11
146.7999999999999
 21
-98.115249375000005
 31
0.0
 73
     3
1001
ACADANNOTATIVE
1000
AnnotativeData
1002
{
1070
     1
1070
     0
1002
}
  0
TEXT
  5
3B
  8
HIBINO-BASE
 62
     7
 10
126.8
 20
-101.3729316666666
 30
0.0
 40
3.2576822916666659
  1
SCALE
 41
0.7
 11
126.8
 21
-98.115249375000005
 31
0.0
 73
     3
1001
ACADANNOTATIVE
1000
AnnotativeData
1002
{
1070
     1
1070
     0
1002
}
  0
TEXT
  5
3C
  8
HIBINO-BASE
 62
     7
 10
171.7999999999999
 20
-101.3729316666666
 30
0.0
 40
3.2576822916666659
  1
DESIGN
 41
0.7
 11
171.7999999999999
 21
-98.115249375000005
 31
0.0
 73
     3
1001
ACADANNOTATIVE
1000
AnnotativeData
1002
{
1070
     1
1070
     0
1002
}
  0
TEXT
  5
3D
  8
HIBINO-BASE
 62
     7
 10
246.7999999999999
 20
-101.3729316666666
 30
0.0
 40
3.2576822916666659
  1
DRAWING NO.
 41
0.7
 11
246.7999999999999
 21
-98.115249375000005
 31
0.0
 73
     3
1001
ACADANNOTATIVE
1000
AnnotativeData
1002
{
1070
     1
1070
     0
1002
}
  0
TEXT
  5
3E
  8
HIBINO-BASE
 62
     7
 10
221.7999999999999
 20
-101.3729316666666
 30
0.0
 40
3.2576822916666659
  1
CHECK
 41
0.7
 11
221.7999999999999
 21
-98.115249375000005
 31
0.0
 73
     3
1001
ACADANNOTATIVE
1000
AnnotativeData
1002
{
1070
     1
1070
     0
1002
}
  0
LINE
  5
3F
  8
HIBINO-BASE
  6
CONTINUOUS
 62
     7
 10
128.74999999999989
 20
-113.96818500000001
 30
0.0
 11
136.25
 21
-106.46818499999991
 31
0.0
  0
TEXT
  5
40
  8
HIBINO-BASE
 62
     7
 10
127.5
 20
-108.68607166666661
 30
0.0
 40
3.2576822916666659
  1
1
 41
0.7
 11
127.5
 21
-105.42838937499999
 31
0.0
 73
     3
1001
ACADANNOTATIVE
1000
AnnotativeData
1002
{
1070
     1
1070
     0
1002
}
  0
LINE
  5
41
  8
HIBINO-BASE
  6
CONTINUOUS
 62
     7
 10
125.0
 20
-116.46818500000001
 30
0.0
 11
125.0
 21
-96.468184999999963
 31
0.0
  0
LINE
  5
42
  8
HIBINO-BASE
  6
CONTINUOUS
 62
     7
 10
145.0
 20
-116.46818500000001
 30
0.0
 11
145.0
 21
-96.468184999999963
 31
0.0
  0
LINE
  5
43
  8
HIBINO-BASE
  6
CONTINUOUS
 62
     7
 10
195.0
 20
-96.468184999999963
 30
0.0
 11
195.0
 21
-116.46818500000001
 31
0.0
  0
LINE
  5
44
  8
HIBINO-BASE
  6
CONTINUOUS
 62
     7
 10
245.0
 20
-96.468184999999963
 30
0.0
 11
245.0
 21
-116.46818500000001
 31
0.0
  0
LINE
  5
45
  8
HIBINO-BASE
  6
CONTINUOUS
 62
     7
 10
220.0
 20
-116.46818500000001
 30
0.0
 11
220.0
 21
-96.468184999999963
 31
0.0
  0
TEXT
  5
46
  8
HIBINO-BASE
 62
     7
 10
146.71307999999999
 20
-110.7408916666666
 30
0.0
 40
3.2576822916666659
  1
'09.06.
 41
0.7
 11
146.71307999999999
 21
-107.483209375
 31
0.0
 73
     3
1001
ACADANNOTATIVE
1000
AnnotativeData
1002
{
1070
     1
1070
     0
1002
}
  0
TEXT
  5
47
  8
HIBINO-BASE
 62
     7
 10
135.0
 20
-112.43607166666661
 30
0.0
 40
3.2576822916666659
  1
2
 41
0.7
 11
135.0
 21
-109.17838937499999
 31
0.0
 73
     3
1001
ACADANNOTATIVE
1000
AnnotativeData
1002
{
1070
     1
1070
     0
1002
}
  0
TEXT
  5
48
  8
HIBINO-BASE
 62
     7
 10
198.0116200220692
 20
-110.7408916666666
 30
0.0
 40
3.2576822916666659
  1
N.Sasaki
 41
0.7
 11
198.0116200220692
 21
-107.483209375
 31
0.0
 73
     3
1001
ACADANNOTATIVE
1000
AnnotativeData
1002
{
1070
     1
1070
     0
1002
}
  0
TEXT
  5
49
  8
HIBINO-BASE
 62
     7
 10
107.76666666666659
 20
-112.51618499999999
 30
0.0
 40
6.5153645833333318
  1
A4
 41
0.7
 11
107.76666666666659
 21
-106.0008204166666
 31
0.0
 73
     3
1001
ACADANNOTATIVE
1000
AnnotativeData
1002
{
1070
     1
1070
     0
1002
}
  0
TEXT
  5
4A
  8
HIBINO-BASE
 62
     7
 10
101.9166666666666
 20
-101.707095
 30
0.0
 40
3.2576822916666659
  1
PAPER SIZE
 41
0.7
 11
101.9166666666666
 21
-98.449412708333327
 31
0.0
 73
     3
1001
ACADANNOTATIVE
1000
AnnotativeData
1002
{
1070
     1
1070
     0
1002
}
  0
LINE
  5
4B
  8
PATTERN_FILL
  6
CONTINUOUS
 62
     7
 10
5.2091264292464379
 20
199.7423261147687
 30
0.0
 11
8.1003082948985679
 21
204.75
 31
0.0
  0
LINE
  5
4C
  8
PATTERN_FILL
  6
CONTINUOUS
 62
     7
 10
4.5265514637672899
 20
194.22994457566199
 30
0.0
 11
10.60030829489857
 21
204.75
 31
0.0
  0
LINE
  5
4D
  8
PATTERN_FILL
  6
CONTINUOUS
 62
     7
 10
3.8439764982881428
 20
188.71756303655539
 30
0.0
 11
13.10030829489857
 21
204.75
 31
0.0
  0
LINE
  5
4E
  8
PATTERN_FILL
  6
CONTINUOUS
 62
     7
 10
3.1614015328090228
 20
183.20518149744879
 30
0.0
 11
15.60030829489857
 21
204.75
 31
0.0
  0
LINE
  5
4F
  8
PATTERN_FILL
  6
CONTINUOUS
 62
     7
 10
2.4788265673298602
 20
177.69279995834211
 30
0.0
 11
18.100308294898571
 21
204.75
 31
0.0
  0
LINE
  5
50
  8
PATTERN_FILL
  6
CONTINUOUS
 62
     7
 10
1.7962516018507411
 20
172.18041841923551
 30
0.0
 11
20.600308294898571
 21
204.75
 31
0.0
  0
LINE
  5
51
  8
PATTERN_FILL
  6
CONTINUOUS
 62
     7
 10
1.1136766363716071
 20
166.66803688012891
 30
0.0
 11
23.100308294898571
 21
204.75
 31
0.0
  0
LINE
  5
52
  8
PATTERN_FILL
  6
CONTINUOUS
 62
     7
 10
3.083647796503171
 20
165.75
 30
0.0
 11
25.600308294898589
 21
204.75
 31
0.0
  0
LINE
  5
53
  8
PATTERN_FILL
  6
CONTINUOUS
 62
     7
 10
5.583647796503171
 20
165.75
 30
0.0
 11
28.100308294898571
 21
204.75
 31
0.0
  0
LINE
  5
54
  8
PATTERN_FILL
  6
CONTINUOUS
 62
     7
 10
8.0836477965031737
 20
165.75
 30
0.0
 11
30.600308294898571
 21
204.75
 31
0.0
  0
LINE
  5
55
  8
PATTERN_FILL
  6
CONTINUOUS
 62
     7
 10
2.9111454793191021
 20
152.4608361654472
 30
0.0
 11
4.810145104606903
 21
155.75
 31
0.0
  0
LINE
  5
56
  8
PATTERN_FILL
  6
CONTINUOUS
 62
     7
 10
10.58364779650317
 20
165.75
 30
0.0
 11
33.100308294898589
 21
204.75
 31
0.0
  0
LINE
  5
57
  8
PATTERN_FILL
  6
CONTINUOUS
 62
     7
 10
3.3560801703252841
 20
148.90135863739769
 30
0.0
 11
7.3101451046069172
 21
155.75
 31
0.0
  0
LINE
  5
58
  8
PATTERN_FILL
  6
CONTINUOUS
 62
     7
 10
13.08364779650317
 20
165.75
 30
0.0
 11
35.600308294898568
 21
204.75
 31
0.0
  0
LINE
  5
59
  8
PATTERN_FILL
  6
CONTINUOUS
 62
     7
 10
5.191342951089907
 20
147.75
 30
0.0
 11
9.810145104606903
 21
155.75
 31
0.0
  0
LINE
  5
5A
  8
PATTERN_FILL
  6
CONTINUOUS
 62
     7
 10
15.58364779650317
 20
165.75
 30
0.0
 11
38.100308294898568
 21
204.75
 31
0.0
  0
LINE
  5
5B
  8
PATTERN_FILL
  6
CONTINUOUS
 62
     7
 10
7.6913429510899061
 20
147.75
 30
0.0
 11
12.31014510460691
 21
155.75
 31
0.0
  0
LINE
  5
5C
  8
PATTERN_FILL
  6
CONTINUOUS
 62
     7
 10
18.083647796503168
 20
165.75
 30
0.0
 11
40.600308294898568
 21
204.75
 31
0.0
  0
LINE
  5
5D
  8
PATTERN_FILL
  6
CONTINUOUS
 62
     7
 10
10.19134295108991
 20
147.75
 30
0.0
 11
14.81014510460691
 21
155.75
 31
0.0
  0
LINE
  5
5E
  8
PATTERN_FILL
  6
CONTINUOUS
 62
     7
 10
20.583647796503168
 20
165.75
 30
0.0
 11
42.839641327241097
 21
204.29851156816241
 31
0.0
  0
LINE
  5
5F
  8
PATTERN_FILL
  6
CONTINUOUS
 62
     7
 10
12.69134295108991
 20
147.75
 30
0.0
 11
17.310145104606899
 21
155.75
 31
0.0
  0
LINE
  5
60
  8
PATTERN_FILL
  6
CONTINUOUS
 62
     7
 10
23.083647796503168
 20
165.75
 30
0.0
 11
44.25408674690042
 21
202.41827588062321
 31
0.0
  0
LINE
  5
61
  8
PATTERN_FILL
  6
CONTINUOUS
 62
     7
 10
15.19134295108991
 20
147.75
 30
0.0
 11
19.810145104606921
 21
155.75
 31
0.0
  0
LINE
  5
62
  8
PATTERN_FILL
  6
CONTINUOUS
 62
     7
 10
25.583647796503168
 20
165.75
 30
0.0
 11
44.864735888010848
 21
199.1458241997025
 31
0.0
  0
LINE
  5
63
  8
PATTERN_FILL
  6
CONTINUOUS
 62
     7
 10
17.691342951089901
 20
147.75
 30
0.0
 11
22.31014510460691
 21
155.75
 31
0.0
  0
LINE
  5
64
  8
PATTERN_FILL
  6
CONTINUOUS
 62
     7
 10
28.083647796503168
 20
165.75
 30
0.0
 11
45.30622908857984
 21
195.58038583536199
 31
0.0
  0
LINE
  5
65
  8
PATTERN_FILL
  6
CONTINUOUS
 62
     7
 10
20.191342951089911
 20
147.75
 30
0.0
 11
24.810145104606921
 21
155.75
 31
0.0
  0
LINE
  5
66
  8
PATTERN_FILL
  6
CONTINUOUS
 62
     7
 10
30.58364779650319
 20
165.75
 30
0.0
 11
45.747722289148847
 21
192.01494747102149
 31
0.0
  0
LINE
  5
67
  8
PATTERN_FILL
  6
CONTINUOUS
 62
     7
 10
22.691342951089911
 20
147.75
 30
0.0
 11
27.310145104606921
 21
155.75
 31
0.0
  0
LINE
  5
68
  8
PATTERN_FILL
  6
CONTINUOUS
 62
     7
 10
33.083647796503172
 20
165.75
 30
0.0
 11
46.189215489717853
 21
188.44950910668109
 31
0.0
  0
LINE
  5
69
  8
PATTERN_FILL
  6
CONTINUOUS
 62
     7
 10
25.191342951089911
 20
147.75
 30
0.0
 11
29.810145104606921
 21
155.75
 31
0.0
  0
LINE
  5
6A
  8
PATTERN_FILL
  6
CONTINUOUS
 62
     7
 10
35.583647796503172
 20
165.75
 30
0.0
 11
46.630708690286852
 21
184.8840707423405
 31
0.0
  0
LINE
  5
6B
  8
PATTERN_FILL
  6
CONTINUOUS
 62
     7
 10
27.691342951089911
 20
147.75
 30
0.0
 11
32.310145104606917
 21
155.75
 31
0.0
  0
LINE
  5
6C
  8
PATTERN_FILL
  6
CONTINUOUS
 62
     7
 10
38.083647796503172
 20
165.75
 30
0.0
 11
47.072201890855851
 21
181.3186323780001
 31
0.0
  0
LINE
  5
6D
  8
PATTERN_FILL
  6
CONTINUOUS
 62
     7
 10
30.191342951089911
 20
147.75
 30
0.0
 11
34.810145104606917
 21
155.75
 31
0.0
  0
LINE
  5
6E
  8
PATTERN_FILL
  6
CONTINUOUS
 62
     7
 10
40.583647796503172
 20
165.75
 30
0.0
 11
47.51369509142485
 21
177.75319401365959
 31
0.0
  0
LINE
  5
6F
  8
PATTERN_FILL
  6
CONTINUOUS
 62
     7
 10
32.691342951089922
 20
147.75
 30
0.0
 11
37.31014510460691
 21
155.75
 31
0.0
  0
LINE
  5
70
  8
PATTERN_FILL
  6
CONTINUOUS
 62
     7
 10
43.083647796503172
 20
165.75
 30
0.0
 11
47.955188291993878
 21
174.18775564931909
 31
0.0
  0
LINE
  5
71
  8
PATTERN_FILL
  6
CONTINUOUS
 62
     7
 10
35.191342951089908
 20
147.75
 30
0.0
 11
39.81014510460691
 21
155.75
 31
0.0
  0
LINE
  5
72
  8
PATTERN_FILL
  6
CONTINUOUS
 62
     7
 10
45.583647796503172
 20
165.75
 30
0.0
 11
48.396681492562898
 21
170.62231728497869
 31
0.0
  0
LINE
  5
73
  8
PATTERN_FILL
  6
CONTINUOUS
 62
     7
 10
37.691342951089908
 20
147.75
 30
0.0
 11
42.310145104606917
 21
155.75
 31
0.0
  0
LINE
  5
74
  8
PATTERN_FILL
  6
CONTINUOUS
 62
     7
 10
48.083647796503179
 20
165.75
 30
0.0
 11
48.83817469313189
 21
167.05687892063821
 31
0.0
  0
LINE
  5
75
  8
PATTERN_FILL
  6
CONTINUOUS
 62
     7
 10
40.191342951089901
 20
147.75
 30
0.0
 11
44.810145104606903
 21
155.75
 31
0.0
  0
LINE
  5
76
  8
PATTERN_FILL
  6
CONTINUOUS
 62
     7
 10
42.691342951089901
 20
147.75
 30
0.0
 11
47.310145104606917
 21
155.75
 31
0.0
  0
LINE
  5
77
  8
PATTERN_FILL
  6
CONTINUOUS
 62
     7
 10
45.191342951089901
 20
147.75
 30
0.0
 11
46.861627133342523
 21
150.6430170667401
 31
0.0
  0
LINE
  5
78
  8
PATTERN_FILL
  6
CONTINUOUS
 62
     7
 10
44.954233938835593
 20
198.42305025090101
 30
0.0
 11
41.301367798044069
 21
204.75
 31
0.0
  0
LINE
  5
79
  8
PATTERN_FILL
  6
CONTINUOUS
 62
     7
 10
45.636808904314719
 20
192.91066871179439
 30
0.0
 11
38.801367798044083
 21
204.75
 31
0.0
  0
LINE
  5
7A
  8
PATTERN_FILL
  6
CONTINUOUS
 62
     7
 10
46.31938386979386
 20
187.3982871726877
 30
0.0
 11
36.301367798044083
 21
204.75
 31
0.0
  0
LINE
  5
7B
  8
PATTERN_FILL
  6
CONTINUOUS
 62
     7
 10
47.001958835273001
 20
181.8859056335811
 30
0.0
 11
33.801367798044083
 21
204.75
 31
0.0
  0
LINE
  5
7C
  8
PATTERN_FILL
  6
CONTINUOUS
 62
     7
 10
47.684533800752142
 20
176.3735240944745
 30
0.0
 11
31.30136779804409
 21
204.75
 31
0.0
  0
LINE
  5
7D
  8
PATTERN_FILL
  6
CONTINUOUS
 62
     7
 10
48.367108766231283
 20
170.86114255536779
 30
0.0
 11
28.80136779804409
 21
204.75
 31
0.0
  0
LINE
  5
7E
  8
PATTERN_FILL
  6
CONTINUOUS
 62
     7
 10
48.818028296439451
 20
165.75
 30
0.0
 11
26.30136779804409
 21
204.75
 31
0.0
  0
LINE
  5
7F
  8
PATTERN_FILL
  6
CONTINUOUS
 62
     7
 10
46.318028296439451
 20
165.75
 30
0.0
 11
23.80136779804409
 21
204.75
 31
0.0
  0
LINE
  5
80
  8
PATTERN_FILL
  6
CONTINUOUS
 62
     7
 10
43.818028296439451
 20
165.75
 30
0.0
 11
21.30136779804409
 21
204.75
 31
0.0
  0
LINE
  5
81
  8
PATTERN_FILL
  6
CONTINUOUS
 62
     7
 10
47.427303186603808
 20
155.16842549283049
 30
0.0
 11
47.091530988335677
 21
155.75
 31
0.0
  0
LINE
  5
82
  8
PATTERN_FILL
  6
CONTINUOUS
 62
     7
 10
41.318028296439451
 20
165.75
 30
0.0
 11
18.80136779804409
 21
204.75
 31
0.0
  0
LINE
  5
83
  8
PATTERN_FILL
  6
CONTINUOUS
 62
     7
 10
46.982368495597612
 20
151.60894796478101
 30
0.0
 11
44.591530988335677
 21
155.75
 31
0.0
  0
LINE
  5
84
  8
PATTERN_FILL
  6
CONTINUOUS
 62
     7
 10
38.818028296439451
 20
165.75
 30
0.0
 11
16.30136779804409
 21
204.75
 31
0.0
  0
LINE
  5
85
  8
PATTERN_FILL
  6
CONTINUOUS
 62
     7
 10
46.53743380459143
 20
148.0494704367315
 30
0.0
 11
42.091530988335698
 21
155.75
 31
0.0
  0
LINE
  5
86
  8
PATTERN_FILL
  6
CONTINUOUS
 62
     7
 10
36.318028296439451
 20
165.75
 30
0.0
 11
13.80136779804408
 21
204.75
 31
0.0
  0
LINE
  5
87
  8
PATTERN_FILL
  6
CONTINUOUS
 62
     7
 10
44.210333141852679
 20
147.75
 30
0.0
 11
39.591530988335691
 21
155.75
 31
0.0
  0
LINE
  5
88
  8
PATTERN_FILL
  6
CONTINUOUS
 62
     7
 10
33.818028296439451
 20
165.75
 30
0.0
 11
11.30136779804408
 21
204.75
 31
0.0
  0
LINE
  5
89
  8
PATTERN_FILL
  6
CONTINUOUS
 62
     7
 10
41.710333141852679
 20
147.75
 30
0.0
 11
37.091530988335698
 21
155.75
 31
0.0
  0
LINE
  5
8A
  8
PATTERN_FILL
  6
CONTINUOUS
 62
     7
 10
31.318028296439451
 20
165.75
 30
0.0
 11
8.8013677980440832
 21
204.75
 31
0.0
  0
LINE
  5
8B
  8
PATTERN_FILL
  6
CONTINUOUS
 62
     7
 10
39.210333141852701
 20
147.75
 30
0.0
 11
34.591530988335712
 21
155.75
 31
0.0
  0
LINE
  5
8C
  8
PATTERN_FILL
  6
CONTINUOUS
 62
     7
 10
28.818028296439451
 20
165.75
 30
0.0
 11
6.8218400688349297
 21
203.84851558305951
 31
0.0
  0
LINE
  5
8D
  8
PATTERN_FILL
  6
CONTINUOUS
 62
     7
 10
36.710333141852693
 20
147.75
 30
0.0
 11
32.091530988335691
 21
155.75
 31
0.0
  0
LINE
  5
8E
  8
PATTERN_FILL
  6
CONTINUOUS
 62
     7
 10
26.318028296439451
 20
165.75
 30
0.0
 11
5.4710949378766713
 21
201.85794775903321
 31
0.0
  0
LINE
  5
8F
  8
PATTERN_FILL
  6
CONTINUOUS
 62
     7
 10
34.210333141852701
 20
147.75
 30
0.0
 11
29.591530988335709
 21
155.75
 31
0.0
  0
LINE
  5
90
  8
PATTERN_FILL
  6
CONTINUOUS
 62
     7
 10
23.818028296439461
 20
165.75
 30
0.0
 11
5.0296017373076856
 21
198.29250939469279
 31
0.0
  0
LINE
  5
91
  8
PATTERN_FILL
  6
CONTINUOUS
 62
     7
 10
31.71033314185269
 20
147.75
 30
0.0
 11
27.091530988335691
 21
155.75
 31
0.0
  0
LINE
  5
92
  8
PATTERN_FILL
  6
CONTINUOUS
 62
     7
 10
21.318028296439451
 20
165.75
 30
0.0
 11
4.5881085367386731
 21
194.72707103035231
 31
0.0
  0
LINE
  5
93
  8
PATTERN_FILL
  6
CONTINUOUS
 62
     7
 10
29.21033314185269
 20
147.75
 30
0.0
 11
24.591530988335691
 21
155.75
 31
0.0
  0
LINE
  5
94
  8
PATTERN_FILL
  6
CONTINUOUS
 62
     7
 10
18.818028296439451
 20
165.75
 30
0.0
 11
4.146615336169674
 21
191.1616326660118
 31
0.0
  0
LINE
  5
95
  8
PATTERN_FILL
  6
CONTINUOUS
 62
     7
 10
26.71033314185269
 20
147.75
 30
0.0
 11
22.091530988335691
 21
155.75
 31
0.0
  0
LINE
  5
96
  8
PATTERN_FILL
  6
CONTINUOUS
 62
     7
 10
16.31802829643944
 20
165.75
 30
0.0
 11
3.7051221356006598
 21
187.59619430167129
 31
0.0
  0
LINE
  5
97
  8
PATTERN_FILL
  6
CONTINUOUS
 62
     7
 10
24.21033314185269
 20
147.75
 30
0.0
 11
19.591530988335691
 21
155.75
 31
0.0
  0
LINE
  5
98
  8
PATTERN_FILL
  6
CONTINUOUS
 62
     7
 10
13.818028296439429
 20
165.75
 30
0.0
 11
3.263628935031647
 21
184.03075593733081
 31
0.0
  0
LINE
  5
99
  8
PATTERN_FILL
  6
CONTINUOUS
 62
     7
 10
21.71033314185269
 20
147.75
 30
0.0
 11
17.091530988335691
 21
155.75
 31
0.0
  0
LINE
  5
9A
  8
PATTERN_FILL
  6
CONTINUOUS
 62
     7
 10
11.318028296439451
 20
165.75
 30
0.0
 11
2.8221357344626621
 21
180.4653175729903
 31
0.0
  0
LINE
  5
9B
  8
PATTERN_FILL
  6
CONTINUOUS
 62
     7
 10
19.210333141852679
 20
147.75
 30
0.0
 11
14.59153098833567
 21
155.75
 31
0.0
  0
LINE
  5
9C
  8
PATTERN_FILL
  6
CONTINUOUS
 62
     7
 10
8.8180282964394365
 20
165.75
 30
0.0
 11
2.3806425338936341
 21
176.89987920864979
 31
0.0
  0
LINE
  5
9D
  8
PATTERN_FILL
  6
CONTINUOUS
 62
     7
 10
16.710333141852679
 20
147.75
 30
0.0
 11
12.09153098833567
 21
155.75
 31
0.0
  0
LINE
  5
9E
  8
PATTERN_FILL
  6
CONTINUOUS
 62
     7
 10
6.3180282964394356
 20
165.75
 30
0.0
 11
1.939149333324635
 21
173.3344408443094
 31
0.0
  0
LINE
  5
9F
  8
PATTERN_FILL
  6
CONTINUOUS
 62
     7
 10
14.210333141852679
 20
147.75
 30
0.0
 11
9.5915309883356912
 21
155.75
 31
0.0
  0
LINE
  5
A0
  8
PATTERN_FILL
  6
CONTINUOUS
 62
     7
 10
3.8180282964394361
 20
165.75
 30
0.0
 11
1.4976561327556359
 21
169.7690024799688
 31
0.0
  0
LINE
  5
A1
  8
PATTERN_FILL
  6
CONTINUOUS
 62
     7
 10
11.710333141852701
 20
147.75
 30
0.0
 11
7.0915309883356912
 21
155.75
 31
0.0
  0
LINE
  5
A2
  8
PATTERN_FILL
  6
CONTINUOUS
 62
     7
 10
1.3180282964394501
 20
165.75
 30
0.0
 11
1.056162932186623
 21
166.20356411562841
 31
0.0
  0
LINE
  5
A3
  8
PATTERN_FILL
  6
CONTINUOUS
 62
     7
 10
9.2103331418526864
 20
147.75
 30
0.0
 11
4.5915309883356912
 21
155.75
 31
0.0
  0
LINE
  5
A4
  8
PATTERN_FILL
  6
CONTINUOUS
 62
     7
 10
6.7103331418526722
 20
147.75
 30
0.0
 11
2.612874093232036
 21
154.84700725414379
 31
0.0
  0
LINE
  5
A5
  8
PATTERN_FILL
  6
CONTINUOUS
 62
     7
 10
4.2103331418526722
 20
147.75
 30
0.0
 11
3.3037104235824719
 21
149.32031661134019
 31
0.0
  0
LINE
  5
A6
  8
PATTERN_FILL
  6
CONTINUOUS
 62
     7
 10
1.296524733140884
 20
253.76101851542941
 30
0.0
 11
9.8911247881049604
 21
268.64730248136141
 31
0.0
  0
LINE
  5
A7
  8
PATTERN_FILL
  6
CONTINUOUS
 62
     7
 10
1.0226916891281661
 20
248.9565987514859
 30
0.0
 11
13.914957832117761
 21
271.2866587358439
 31
0.0
  0
LINE
  5
A8
  8
PATTERN_FILL
  6
CONTINUOUS
 62
     7
 10
1.4511239792276169
 20
245.36853822661899
 30
0.0
 11
17.236525542018239
 21
272.70965575124961
 31
0.0
  0
LINE
  5
A9
  8
PATTERN_FILL
  6
CONTINUOUS
 62
     7
 10
2.2358926294165249
 20
242.39767038201131
 30
0.0
 11
20.20175689182928
 21
273.5154600863961
 31
0.0
  0
LINE
  5
AA
  8
PATTERN_FILL
  6
CONTINUOUS
 62
     7
 10
3.2655444566227478
 20
239.85095264191639
 30
0.0
 11
22.92986378672903
 21
273.91055281791921
 31
0.0
  0
LINE
  5
AB
  8
PATTERN_FILL
  6
CONTINUOUS
 62
     7
 10
4.5155444566227478
 20
237.68588913245529
 30
0.0
 11
25.478749012124592
 21
273.99522451204382
 31
0.0
  0
LINE
  5
AC
  8
PATTERN_FILL
  6
CONTINUOUS
 62
     7
 10
5.8063612013841199
 20
235.59152229872049
 30
0.0
 11
27.881288319861682
 21
273.82641764130358
 31
0.0
  0
LINE
  5
AD
  8
PATTERN_FILL
  6
CONTINUOUS
 62
     7
 10
7.2799023519891071
 20
233.8136434196897
 30
0.0
 11
30.157747169256801
 21
273.43923301087358
 31
0.0
  0
LINE
  5
AE
  8
PATTERN_FILL
  6
CONTINUOUS
 62
     7
 10
8.8665684779297465
 20
232.23170274554511
 30
0.0
 11
32.321081043316077
 21
272.85611017555692
 31
0.0
  0
LINE
  5
AF
  8
PATTERN_FILL
  6
CONTINUOUS
 62
     7
 10
10.55814115433121
 20
230.83146554684549
 30
0.0
 11
34.379508366914749
 21
272.09128386479563
 31
0.0
  0
LINE
  5
B0
  8
PATTERN_FILL
  6
CONTINUOUS
 62
     7
 10
12.34980633399006
 20
229.60459364924449
 30
0.0
 11
36.337843187255871
 21
271.15309225293549
 31
0.0
  0
LINE
  5
B1
  8
PATTERN_FILL
  6
CONTINUOUS
 62
     7
 10
14.23947494238862
 20
228.54746866953661
 30
0.0
 11
38.19817457885722
 21
270.04515372318212
 31
0.0
  0
LINE
  5
B2
  8
PATTERN_FILL
  6
CONTINUOUS
 62
     7
 10
16.227510416360388
 20
227.6607200987828
 30
0.0
 11
39.960139104885492
 21
268.76683878447488
 31
0.0
  0
LINE
  5
B3
  8
PATTERN_FILL
  6
CONTINUOUS
 62
     7
 10
18.316775148384149
 20
226.94930574618749
 30
0.0
 11
41.620874372861699
 21
267.31318962760901
 31
0.0
  0
LINE
  5
B4
  8
PATTERN_FILL
  6
CONTINUOUS
 62
     7
 10
20.513010393804741
 20
226.42316975770731
 30
0.0
 11
43.174639127441218
 21
265.67426210662842
 31
0.0
  0
LINE
  5
B5
  8
PATTERN_FILL
  6
CONTINUOUS
 62
     7
 10
22.825675617032012
 20
226.09869640631231
 30
0.0
 11
44.611973904213883
 21
263.83367194856208
 31
0.0
  0
LINE
  5
B6
  8
PATTERN_FILL
  6
CONTINUOUS
 62
     7
 10
25.269567290289459
 20
226.0015139336665
 30
0.0
 11
45.918082230956458
 21
261.76579091174682
 31
0.0
  0
LINE
  5
B7
  8
PATTERN_FILL
  6
CONTINUOUS
 62
     7
 10
27.86798436183712
 20
226.17197730191921
 30
0.0
 11
47.069665159408778
 21
259.43026403403297
 31
0.0
  0
LINE
  5
B8
  8
PATTERN_FILL
  6
CONTINUOUS
 62
     7
 10
30.659457747870661
 20
226.67682401558341
 30
0.0
 11
48.028191773375212
 21
256.76035381090759
 31
0.0
  0
LINE
  5
B9
  8
PATTERN_FILL
  6
CONTINUOUS
 62
     7
 10
33.7143877756519
 20
227.6379910183461
 30
0.0
 11
48.723261745593987
 21
253.6341232986839
 31
0.0
  0
LINE
  5
BA
  8
PATTERN_FILL
  6
CONTINUOUS
 62
     7
 10
37.188643263782843
 20
229.32545102334171
 30
0.0
 11
48.999006257463087
 21
249.7815997842273
 31
0.0
  0
LINE
  5
BB
  8
PATTERN_FILL
  6
CONTINUOUS
 62
     7
 10
41.639859071427068
 20
232.70505593871309
 30
0.0
 11
48.297790449818848
 21
244.23693135939479
 31
0.0
  0
LINE
  5
BC
  8
PATTERN_FILL
  6
CONTINUOUS
 62
     7
 10
47.335209170575112
 20
258.78284870111389
 30
0.0
 11
43.773774678047211
 21
264.9514341900005
 31
0.0
  0
LINE
  5
BD
  8
PATTERN_FILL
  6
CONTINUOUS
 62
     7
 10
48.941829220278741
 20
251.6699741276461
 30
0.0
 11
38.417154628343852
 21
269.8992452540067
 31
0.0
  0
LINE
  5
BE
  8
PATTERN_FILL
  6
CONTINUOUS
 62
     7
 10
48.86633897178541
 20
247.47060005459039
 30
0.0
 11
34.742644876837083
 21
271.93355581760147
 31
0.0
  0
LINE
  5
BF
  8
PATTERN_FILL
  6
CONTINUOUS
 62
     7
 10
48.278349548400222
 20
244.15890059128449
 30
0.0
 11
31.580634300222211
 21
273.08019177144638
 31
0.0
  0
LINE
  5
C0
  8
PATTERN_FILL
  6
CONTINUOUS
 62
     7
 10
47.392233275017922
 20
241.3635719792741
 30
0.0
 11
28.7167505736045
 21
273.71045687399572
 31
0.0
  0
LINE
  5
C1
  8
PATTERN_FILL
  6
CONTINUOUS
 62
     7
 10
46.295798238282067
 20
238.932526151177
 30
0.0
 11
26.06318561034028
 21
273.9764391926318
 31
0.0
  0
LINE
  5
C2
  8
PATTERN_FILL
  6
CONTINUOUS
 62
     7
 10
45.034922639966361
 20
236.78629973056141
 30
0.0
 11
23.574061208656051
 21
273.95760210378631
 31
0.0
  0
LINE
  5
C3
  8
PATTERN_FILL
  6
CONTINUOUS
 62
     7
 10
43.636671910769238
 20
234.8780140163289
 30
0.0
 11
21.222311937853231
 21
273.70082430855751
 31
0.0
  0
LINE
  5
C4
  8
PATTERN_FILL
  6
CONTINUOUS
 62
     7
 10
42.118049904200163
 20
233.17821747027659
 30
0.0
 11
18.990933944422171
 21
273.23555734514912
 31
0.0
  0
LINE
  5
C5
  8
PATTERN_FILL
  6
CONTINUOUS
 62
     7
 10
38.759181504765863
 20
230.3356941561899
 30
0.0
 11
14.84980234385646
 21
271.74795364031343
 31
0.0
  0
LINE
  5
C6
  8
PATTERN_FILL
  6
CONTINUOUS
 62
     7
 10
36.92942287704679
 20
229.17480204606471
 30
0.0
 11
12.92956097157561
 21
270.74378224097762
 31
0.0
  0
LINE
  5
C7
  8
PATTERN_FILL
  6
CONTINUOUS
 62
     7
 10
35.001806801546522
 20
228.18340400739541
 30
0.0
 11
11.107177047075799
 21
269.57011677018568
 31
0.0
  0
LINE
  5
C8
  8
PATTERN_FILL
  6
CONTINUOUS
 62
     7
 10
32.975023819109303
 20
227.36376808997051
 30
0.0
 11
9.3839600295131618
 21
268.22468917814939
 31
0.0
  0
LINE
  5
C9
  8
PATTERN_FILL
  6
CONTINUOUS
 62
     7
 10
30.845161860956392
 20
226.7226701956773
 30
0.0
 11
7.7638219876658781
 21
266.70072356298181
 31
0.0
  0
LINE
  5
CA
  8
PATTERN_FILL
  6
CONTINUOUS
 62
     7
 10
28.605170986094269
 20
226.27232118050691
 30
0.0
 11
6.2538128625280924
 21
264.98600906869081
 31
0.0
  0
LINE
  5
CB
  8
PATTERN_FILL
  6
CONTINUOUS
 62
     7
 10
26.243775922660451
 20
226.0322503881944
 30
0.0
 11
4.8652079259619123
 21
263.06101635154232
 31
0.0
  0
LINE
  5
CC
  8
PATTERN_FILL
  6
CONTINUOUS
 62
     7
 10
23.743389395110238
 20
226.03291987354999
 30
0.0
 11
3.6155944535120881
 21
260.89528335672583
 31
0.0
  0
LINE
  5
CD
  8
PATTERN_FILL
  6
CONTINUOUS
 62
     7
 10
21.075927746671411
 20
226.32297195696529
 30
0.0
 11
2.5330561019510318
 21
258.44016776384922
 31
0.0
  0
LINE
  5
CE
  8
PATTERN_FILL
  6
CONTINUOUS
 62
     7
 10
18.193465672668118
 20
226.98541570110709
 30
0.0
 11
1.6655181759541191
 21
255.6126605102466
 31
0.0
  0
LINE
  5
CF
  8
PATTERN_FILL
  6
CONTINUOUS
 62
     7
 10
15.0031070394921
 20
228.18115192921169
 30
0.0
 11
1.105876809130151
 21
252.2518607726808
 31
0.0
  0
LINE
  5
D0
  8
PATTERN_FILL
  6
CONTINUOUS
 62
     7
 10
11.271592858533889
 20
230.31419706087291
 30
0.0
 11
1.087390990088394
 21
247.9537521315585
 31
0.0
  0
LINE
  5
D1
  8
PATTERN_FILL
  6
CONTINUOUS
 62
     7
 10
41.259181504765849
 20
230.3356941561899
 30
0.0
 11
41.251270360938371
 21
230.34939665924509
 31
0.0
  0
LINE
  5
D2
  8
PATTERN_FILL
  6
CONTINUOUS
 62
     7
 10
40.489958175041643
 20
231.6680280456396
 30
0.0
 11
16.869025673580751
 21
272.5806832603248
 31
0.0
  0
LINE
  5
D3
  8
PATTERN_FILL
  6
CONTINUOUS
 62
     7
 10
80.209126429246453
 20
199.7423261147687
 30
0.0
 11
83.100308294898568
 21
204.75
 31
0.0
  0
LINE
  5
D4
  8
PATTERN_FILL
  6
CONTINUOUS
 62
     7
 10
79.526551463767305
 20
194.22994457566199
 30
0.0
 11
85.600308294898568
 21
204.75
 31
0.0
  0
LINE
  5
D5
  8
PATTERN_FILL
  6
CONTINUOUS
 62
     7
 10
78.843976498288143
 20
188.71756303655539
 30
0.0
 11
88.100308294898568
 21
204.75
 31
0.0
  0
LINE
  5
D6
  8
PATTERN_FILL
  6
CONTINUOUS
 62
     7
 10
78.161401532809023
 20
183.20518149744879
 30
0.0
 11
90.600308294898568
 21
204.75
 31
0.0
  0
LINE
  5
D7
  8
PATTERN_FILL
  6
CONTINUOUS
 62
     7
 10
77.478826567329861
 20
177.69279995834211
 30
0.0
 11
93.100308294898568
 21
204.75
 31
0.0
  0
LINE
  5
D8
  8
PATTERN_FILL
  6
CONTINUOUS
 62
     7
 10
76.796251601850742
 20
172.18041841923551
 30
0.0
 11
95.600308294898568
 21
204.75
 31
0.0
  0
LINE
  5
D9
  8
PATTERN_FILL
  6
CONTINUOUS
 62
     7
 10
76.113676636371622
 20
166.66803688012891
 30
0.0
 11
98.100308294898568
 21
204.75
 31
0.0
  0
LINE
  5
DA
  8
PATTERN_FILL
  6
CONTINUOUS
 62
     7
 10
78.083647796503172
 20
165.75
 30
0.0
 11
100.6003082948986
 21
204.75
 31
0.0
  0
LINE
  5
DB
  8
PATTERN_FILL
  6
CONTINUOUS
 62
     7
 10
80.583647796503158
 20
165.75
 30
0.0
 11
103.1003082948986
 21
204.75
 31
0.0
  0
LINE
  5
DC
  8
PATTERN_FILL
  6
CONTINUOUS
 62
     7
 10
83.083647796503158
 20
165.75
 30
0.0
 11
105.6003082948985
 21
204.75
 31
0.0
  0
LINE
  5
DD
  8
PATTERN_FILL
  6
CONTINUOUS
 62
     7
 10
77.911145479319089
 20
152.4608361654472
 30
0.0
 11
79.810145104606903
 21
155.75
 31
0.0
  0
LINE
  5
DE
  8
PATTERN_FILL
  6
CONTINUOUS
 62
     7
 10
85.583647796503158
 20
165.75
 30
0.0
 11
108.1003082948986
 21
204.75
 31
0.0
  0
LINE
  5
DF
  8
PATTERN_FILL
  6
CONTINUOUS
 62
     7
 10
78.356080170325285
 20
148.90135863739769
 30
0.0
 11
82.310145104606903
 21
155.75
 31
0.0
  0
LINE
  5
E0
  8
PATTERN_FILL
  6
CONTINUOUS
 62
     7
 10
88.083647796503158
 20
165.75
 30
0.0
 11
110.6003082948985
 21
204.75
 31
0.0
  0
LINE
  5
E1
  8
PATTERN_FILL
  6
CONTINUOUS
 62
     7
 10
80.191342951089922
 20
147.75
 30
0.0
 11
84.810145104606903
 21
155.75
 31
0.0
  0
LINE
  5
E2
  8
PATTERN_FILL
  6
CONTINUOUS
 62
     7
 10
90.583647796503158
 20
165.75
 30
0.0
 11
113.1003082948986
 21
204.75
 31
0.0
  0
LINE
  5
E3
  8
PATTERN_FILL
  6
CONTINUOUS
 62
     7
 10
82.691342951089922
 20
147.75
 30
0.0
 11
87.310145104606917
 21
155.75
 31
0.0
  0
LINE
  5
E4
  8
PATTERN_FILL
  6
CONTINUOUS
 62
     7
 10
93.083647796503158
 20
165.75
 30
0.0
 11
115.6003082948986
 21
204.75
 31
0.0
  0
LINE
  5
E5
  8
PATTERN_FILL
  6
CONTINUOUS
 62
     7
 10
85.191342951089922
 20
147.75
 30
0.0
 11
89.810145104606917
 21
155.75
 31
0.0
  0
LINE
  5
E6
  8
PATTERN_FILL
  6
CONTINUOUS
 62
     7
 10
95.583647796503158
 20
165.75
 30
0.0
 11
117.8396413272411
 21
204.29851156816241
 31
0.0
  0
LINE
  5
E7
  8
PATTERN_FILL
  6
CONTINUOUS
 62
     7
 10
87.691342951089922
 20
147.75
 30
0.0
 11
92.310145104606917
 21
155.75
 31
0.0
  0
LINE
  5
E8
  8
PATTERN_FILL
  6
CONTINUOUS
 62
     7
 10
98.083647796503158
 20
165.75
 30
0.0
 11
119.2540867469004
 21
202.41827588062321
 31
0.0
  0
LINE
  5
E9
  8
PATTERN_FILL
  6
CONTINUOUS
 62
     7
 10
90.191342951089922
 20
147.75
 30
0.0
 11
94.810145104606917
 21
155.75
 31
0.0
  0
LINE
  5
EA
  8
PATTERN_FILL
  6
CONTINUOUS
 62
     7
 10
100.5836477965031
 20
165.75
 30
0.0
 11
119.8647358880108
 21
199.1458241997025
 31
0.0
  0
LINE
  5
EB
  8
PATTERN_FILL
  6
CONTINUOUS
 62
     7
 10
92.691342951089922
 20
147.75
 30
0.0
 11
97.310145104606917
 21
155.75
 31
0.0
  0
LINE
  5
EC
  8
PATTERN_FILL
  6
CONTINUOUS
 62
     7
 10
103.0836477965031
 20
165.75
 30
0.0
 11
120.3062290885798
 21
195.58038583536199
 31
0.0
  0
LINE
  5
ED
  8
PATTERN_FILL
  6
CONTINUOUS
 62
     7
 10
95.191342951089922
 20
147.75
 30
0.0
 11
99.810145104606917
 21
155.75
 31
0.0
  0
LINE
  5
EE
  8
PATTERN_FILL
  6
CONTINUOUS
 62
     7
 10
105.5836477965032
 20
165.75
 30
0.0
 11
120.7477222891488
 21
192.01494747102149
 31
0.0
  0
LINE
  5
EF
  8
PATTERN_FILL
  6
CONTINUOUS
 62
     7
 10
97.691342951089922
 20
147.75
 30
0.0
 11
102.3101451046069
 21
155.75
 31
0.0
  0
LINE
  5
F0
  8
PATTERN_FILL
  6
CONTINUOUS
 62
     7
 10
108.0836477965031
 20
165.75
 30
0.0
 11
121.1892154897179
 21
188.44950910668109
 31
0.0
  0
LINE
  5
F1
  8
PATTERN_FILL
  6
CONTINUOUS
 62
     7
 10
100.19134295108989
 20
147.75
 30
0.0
 11
104.8101451046069
 21
155.75
 31
0.0
  0
LINE
  5
F2
  8
PATTERN_FILL
  6
CONTINUOUS
 62
     7
 10
110.5836477965031
 20
165.75
 30
0.0
 11
121.6307086902868
 21
184.8840707423405
 31
0.0
  0
LINE
  5
F3
  8
PATTERN_FILL
  6
CONTINUOUS
 62
     7
 10
102.69134295108989
 20
147.75
 30
0.0
 11
107.3101451046069
 21
155.75
 31
0.0
  0
LINE
  5
F4
  8
PATTERN_FILL
  6
CONTINUOUS
 62
     7
 10
113.0836477965031
 20
165.75
 30
0.0
 11
122.07220189085579
 21
181.3186323780001
 31
0.0
  0
LINE
  5
F5
  8
PATTERN_FILL
  6
CONTINUOUS
 62
     7
 10
105.19134295108989
 20
147.75
 30
0.0
 11
109.8101451046069
 21
155.75
 31
0.0
  0
LINE
  5
F6
  8
PATTERN_FILL
  6
CONTINUOUS
 62
     7
 10
115.5836477965031
 20
165.75
 30
0.0
 11
122.51369509142479
 21
177.75319401365959
 31
0.0
  0
LINE
  5
F7
  8
PATTERN_FILL
  6
CONTINUOUS
 62
     7
 10
107.69134295108989
 20
147.75
 30
0.0
 11
112.3101451046069
 21
155.75
 31
0.0
  0
LINE
  5
F8
  8
PATTERN_FILL
  6
CONTINUOUS
 62
     7
 10
118.0836477965031
 20
165.75
 30
0.0
 11
122.95518829199381
 21
174.18775564931909
 31
0.0
  0
LINE
  5
F9
  8
PATTERN_FILL
  6
CONTINUOUS
 62
     7
 10
110.19134295108989
 20
147.75
 30
0.0
 11
114.8101451046069
 21
155.75
 31
0.0
  0
LINE
  5
FA
  8
PATTERN_FILL
  6
CONTINUOUS
 62
     7
 10
120.5836477965031
 20
165.75
 30
0.0
 11
123.39668149256281
 21
170.62231728497869
 31
0.0
  0
LINE
  5
FB
  8
PATTERN_FILL
  6
CONTINUOUS
 62
     7
 10
112.69134295108989
 20
147.75
 30
0.0
 11
117.3101451046069
 21
155.75
 31
0.0
  0
LINE
  5
FC
  8
PATTERN_FILL
  6
CONTINUOUS
 62
     7
 10
123.0836477965032
 20
165.75
 30
0.0
 11
123.8381746931318
 21
167.05687892063821
 31
0.0
  0
LINE
  5
FD
  8
PATTERN_FILL
  6
CONTINUOUS
 62
     7
 10
115.19134295108989
 20
147.75
 30
0.0
 11
119.8101451046069
 21
155.75
 31
0.0
  0
LINE
  5
FE
  8
PATTERN_FILL
  6
CONTINUOUS
 62
     7
 10
117.69134295108989
 20
147.75
 30
0.0
 11
122.3101451046069
 21
155.75
 31
0.0
  0
LINE
  5
FF
  8
PATTERN_FILL
  6
CONTINUOUS
 62
     7
 10
120.19134295108989
 20
147.75
 30
0.0
 11
121.86162713334249
 21
150.6430170667401
 31
0.0
  0
LINE
  5
100
  8
PATTERN_FILL
  6
CONTINUOUS
 62
     7
 10
119.9542339388356
 20
198.42305025090101
 30
0.0
 11
116.301367798044
 21
204.75
 31
0.0
  0
LINE
  5
101
  8
PATTERN_FILL
  6
CONTINUOUS
 62
     7
 10
120.63680890431471
 20
192.91066871179439
 30
0.0
 11
113.801367798044
 21
204.75
 31
0.0
  0
LINE
  5
102
  8
PATTERN_FILL
  6
CONTINUOUS
 62
     7
 10
121.3193838697938
 20
187.3982871726877
 30
0.0
 11
111.301367798044
 21
204.75
 31
0.0
  0
LINE
  5
103
  8
PATTERN_FILL
  6
CONTINUOUS
 62
     7
 10
122.001958835273
 20
181.8859056335811
 30
0.0
 11
108.8013677980441
 21
204.75
 31
0.0
  0
LINE
  5
104
  8
PATTERN_FILL
  6
CONTINUOUS
 62
     7
 10
122.68453380075211
 20
176.3735240944745
 30
0.0
 11
106.301367798044
 21
204.75
 31
0.0
  0
LINE
  5
105
  8
PATTERN_FILL
  6
CONTINUOUS
 62
     7
 10
123.3671087662313
 20
170.86114255536779
 30
0.0
 11
103.801367798044
 21
204.75
 31
0.0
  0
LINE
  5
106
  8
PATTERN_FILL
  6
CONTINUOUS
 62
     7
 10
123.81802829643939
 20
165.75
 30
0.0
 11
101.301367798044
 21
204.75
 31
0.0
  0
LINE
  5
107
  8
PATTERN_FILL
  6
CONTINUOUS
 62
     7
 10
121.31802829643939
 20
165.75
 30
0.0
 11
98.801367798044069
 21
204.75
 31
0.0
  0
LINE
  5
108
  8
PATTERN_FILL
  6
CONTINUOUS
 62
     7
 10
118.81802829643939
 20
165.75
 30
0.0
 11
96.301367798044069
 21
204.75
 31
0.0
  0
LINE
  5
109
  8
PATTERN_FILL
  6
CONTINUOUS
 62
     7
 10
122.42730318660379
 20
155.16842549283049
 30
0.0
 11
122.09153098833571
 21
155.75
 31
0.0
  0
LINE
  5
10A
  8
PATTERN_FILL
  6
CONTINUOUS
 62
     7
 10
116.31802829643939
 20
165.75
 30
0.0
 11
93.801367798044069
 21
204.75
 31
0.0
  0
LINE
  5
10B
  8
PATTERN_FILL
  6
CONTINUOUS
 62
     7
 10
121.9823684955976
 20
151.60894796478101
 30
0.0
 11
119.59153098833571
 21
155.75
 31
0.0
  0
LINE
  5
10C
  8
PATTERN_FILL
  6
CONTINUOUS
 62
     7
 10
113.81802829643939
 20
165.75
 30
0.0
 11
91.301367798044069
 21
204.75
 31
0.0
  0
LINE
  5
10D
  8
PATTERN_FILL
  6
CONTINUOUS
 62
     7
 10
121.5374338045914
 20
148.0494704367315
 30
0.0
 11
117.09153098833571
 21
155.75
 31
0.0
  0
LINE
  5
10E
  8
PATTERN_FILL
  6
CONTINUOUS
 62
     7
 10
111.31802829643939
 20
165.75
 30
0.0
 11
88.801367798044069
 21
204.75
 31
0.0
  0
LINE
  5
10F
  8
PATTERN_FILL
  6
CONTINUOUS
 62
     7
 10
119.2103331418527
 20
147.75
 30
0.0
 11
114.59153098833571
 21
155.75
 31
0.0
  0
LINE
  5
110
  8
PATTERN_FILL
  6
CONTINUOUS
 62
     7
 10
108.81802829643939
 20
165.75
 30
0.0
 11
86.301367798044069
 21
204.75
 31
0.0
  0
LINE
  5
111
  8
PATTERN_FILL
  6
CONTINUOUS
 62
     7
 10
116.7103331418527
 20
147.75
 30
0.0
 11
112.09153098833571
 21
155.75
 31
0.0
  0
LINE
  5
112
  8
PATTERN_FILL
  6
CONTINUOUS
 62
     7
 10
106.31802829643939
 20
165.75
 30
0.0
 11
83.801367798044069
 21
204.75
 31
0.0
  0
LINE
  5
113
  8
PATTERN_FILL
  6
CONTINUOUS
 62
     7
 10
114.2103331418527
 20
147.75
 30
0.0
 11
109.59153098833571
 21
155.75
 31
0.0
  0
LINE
  5
114
  8
PATTERN_FILL
  6
CONTINUOUS
 62
     7
 10
103.81802829643939
 20
165.75
 30
0.0
 11
81.821840068834945
 21
203.84851558305951
 31
0.0
  0
LINE
  5
115
  8
PATTERN_FILL
  6
CONTINUOUS
 62
     7
 10
111.7103331418527
 20
147.75
 30
0.0
 11
107.09153098833571
 21
155.75
 31
0.0
  0
LINE
  5
116
  8
PATTERN_FILL
  6
CONTINUOUS
 62
     7
 10
101.31802829643939
 20
165.75
 30
0.0
 11
80.471094937876671
 21
201.85794775903321
 31
0.0
  0
LINE
  5
117
  8
PATTERN_FILL
  6
CONTINUOUS
 62
     7
 10
109.2103331418527
 20
147.75
 30
0.0
 11
104.59153098833571
 21
155.75
 31
0.0
  0
LINE
  5
118
  8
PATTERN_FILL
  6
CONTINUOUS
 62
     7
 10
98.818028296439451
 20
165.75
 30
0.0
 11
80.029601737307686
 21
198.29250939469279
 31
0.0
  0
LINE
  5
119
  8
PATTERN_FILL
  6
CONTINUOUS
 62
     7
 10
106.7103331418527
 20
147.75
 30
0.0
 11
102.09153098833571
 21
155.75
 31
0.0
  0
LINE
  5
11A
  8
PATTERN_FILL
  6
CONTINUOUS
 62
     7
 10
96.318028296439451
 20
165.75
 30
0.0
 11
79.588108536738673
 21
194.72707103035231
 31
0.0
  0
LINE
  5
11B
  8
PATTERN_FILL
  6
CONTINUOUS
 62
     7
 10
104.2103331418527
 20
147.75
 30
0.0
 11
99.591530988335691
 21
155.75
 31
0.0
  0
LINE
  5
11C
  8
PATTERN_FILL
  6
CONTINUOUS
 62
     7
 10
93.818028296439437
 20
165.75
 30
0.0
 11
79.14661533616966
 21
191.1616326660118
 31
0.0
  0
LINE
  5
11D
  8
PATTERN_FILL
  6
CONTINUOUS
 62
     7
 10
101.7103331418527
 20
147.75
 30
0.0
 11
97.091530988335691
 21
155.75
 31
0.0
  0
LINE
  5
11E
  8
PATTERN_FILL
  6
CONTINUOUS
 62
     7
 10
91.318028296439437
 20
165.75
 30
0.0
 11
78.705122135600647
 21
187.59619430167129
 31
0.0
  0
LINE
  5
11F
  8
PATTERN_FILL
  6
CONTINUOUS
 62
     7
 10
99.210333141852686
 20
147.75
 30
0.0
 11
94.591530988335691
 21
155.75
 31
0.0
  0
LINE
  5
120
  8
PATTERN_FILL
  6
CONTINUOUS
 62
     7
 10
88.818028296439437
 20
165.75
 30
0.0
 11
78.263628935031647
 21
184.03075593733081
 31
0.0
  0
LINE
  5
121
  8
PATTERN_FILL
  6
CONTINUOUS
 62
     7
 10
96.710333141852686
 20
147.75
 30
0.0
 11
92.091530988335691
 21
155.75
 31
0.0
  0
LINE
  5
122
  8
PATTERN_FILL
  6
CONTINUOUS
 62
     7
 10
86.318028296439451
 20
165.75
 30
0.0
 11
77.822135734462648
 21
180.4653175729903
 31
0.0
  0
LINE
  5
123
  8
PATTERN_FILL
  6
CONTINUOUS
 62
     7
 10
94.210333141852686
 20
147.75
 30
0.0
 11
89.591530988335649
 21
155.75
 31
0.0
  0
LINE
  5
124
  8
PATTERN_FILL
  6
CONTINUOUS
 62
     7
 10
83.818028296439437
 20
165.75
 30
0.0
 11
77.380642533893621
 21
176.89987920864979
 31
0.0
  0
LINE
  5
125
  8
PATTERN_FILL
  6
CONTINUOUS
 62
     7
 10
91.710333141852686
 20
147.75
 30
0.0
 11
87.091530988335649
 21
155.75
 31
0.0
  0
LINE
  5
126
  8
PATTERN_FILL
  6
CONTINUOUS
 62
     7
 10
81.318028296439437
 20
165.75
 30
0.0
 11
76.939149333324622
 21
173.3344408443094
 31
0.0
  0
LINE
  5
127
  8
PATTERN_FILL
  6
CONTINUOUS
 62
     7
 10
89.210333141852644
 20
147.75
 30
0.0
 11
84.591530988335705
 21
155.75
 31
0.0
  0
LINE
  5
128
  8
PATTERN_FILL
  6
CONTINUOUS
 62
     7
 10
78.818028296439422
 20
165.75
 30
0.0
 11
76.497656132755623
 21
169.7690024799688
 31
0.0
  0
LINE
  5
129
  8
PATTERN_FILL
  6
CONTINUOUS
 62
     7
 10
86.710333141852715
 20
147.75
 30
0.0
 11
82.091530988335705
 21
155.75
 31
0.0
  0
LINE
  5
12A
  8
PATTERN_FILL
  6
CONTINUOUS
 62
     7
 10
76.318028296439451
 20
165.75
 30
0.0
 11
76.056162932186623
 21
166.20356411562841
 31
0.0
  0
LINE
  5
12B
  8
PATTERN_FILL
  6
CONTINUOUS
 62
     7
 10
84.210333141852672
 20
147.75
 30
0.0
 11
79.591530988335705
 21
155.75
 31
0.0
  0
LINE
  5
12C
  8
PATTERN_FILL
  6
CONTINUOUS
 62
     7
 10
81.710333141852672
 20
147.75
 30
0.0
 11
77.612874093232037
 21
154.84700725414379
 31
0.0
  0
LINE
  5
12D
  8
PATTERN_FILL
  6
CONTINUOUS
 62
     7
 10
79.210333141852672
 20
147.75
 30
0.0
 11
78.303710423582444
 21
149.32031661134019
 31
0.0
  0
LINE
  5
12E
  8
PATTERN_FILL
  6
CONTINUOUS
 62
     7
 10
180.2091264292464
 20
199.7423261147687
 30
0.0
 11
183.1003082948985
 21
204.75
 31
0.0
  0
LINE
  5
12F
  8
PATTERN_FILL
  6
CONTINUOUS
 62
     7
 10
179.5265514637673
 20
194.22994457566199
 30
0.0
 11
185.6003082948985
 21
204.75
 31
0.0
  0
LINE
  5
130
  8
PATTERN_FILL
  6
CONTINUOUS
 62
     7
 10
178.8439764982881
 20
188.71756303655539
 30
0.0
 11
188.1003082948985
 21
204.75
 31
0.0
  0
LINE
  5
131
  8
PATTERN_FILL
  6
CONTINUOUS
 62
     7
 10
178.16140153280901
 20
183.20518149744879
 30
0.0
 11
190.6003082948985
 21
204.75
 31
0.0
  0
LINE
  5
132
  8
PATTERN_FILL
  6
CONTINUOUS
 62
     7
 10
177.4788265673298
 20
177.69279995834211
 30
0.0
 11
193.1003082948985
 21
204.75
 31
0.0
  0
LINE
  5
133
  8
PATTERN_FILL
  6
CONTINUOUS
 62
     7
 10
176.79625160185071
 20
172.18041841923551
 30
0.0
 11
195.6003082948985
 21
204.75
 31
0.0
  0
LINE
  5
134
  8
PATTERN_FILL
  6
CONTINUOUS
 62
     7
 10
176.11367663637159
 20
166.66803688012891
 30
0.0
 11
198.1003082948985
 21
204.75
 31
0.0
  0
LINE
  5
135
  8
PATTERN_FILL
  6
CONTINUOUS
 62
     7
 10
178.0836477965031
 20
165.75
 30
0.0
 11
200.60030829489861
 21
204.75
 31
0.0
  0
LINE
  5
136
  8
PATTERN_FILL
  6
CONTINUOUS
 62
     7
 10
180.58364779650319
 20
165.75
 30
0.0
 11
203.10030829489861
 21
204.75
 31
0.0
  0
LINE
  5
137
  8
PATTERN_FILL
  6
CONTINUOUS
 62
     7
 10
183.08364779650319
 20
165.75
 30
0.0
 11
205.6003082948985
 21
204.75
 31
0.0
  0
LINE
  5
138
  8
PATTERN_FILL
  6
CONTINUOUS
 62
     7
 10
177.91114547931909
 20
152.4608361654472
 30
0.0
 11
179.8101451046069
 21
155.75
 31
0.0
  0
LINE
  5
139
  8
PATTERN_FILL
  6
CONTINUOUS
 62
     7
 10
185.58364779650319
 20
165.75
 30
0.0
 11
208.1003082948985
 21
204.75
 31
0.0
  0
LINE
  5
13A
  8
PATTERN_FILL
  6
CONTINUOUS
 62
     7
 10
178.3560801703253
 20
148.90135863739769
 30
0.0
 11
182.3101451046069
 21
155.75
 31
0.0
  0
LINE
  5
13B
  8
PATTERN_FILL
  6
CONTINUOUS
 62
     7
 10
188.08364779650319
 20
165.75
 30
0.0
 11
210.60030829489861
 21
204.75
 31
0.0
  0
LINE
  5
13C
  8
PATTERN_FILL
  6
CONTINUOUS
 62
     7
 10
180.19134295108981
 20
147.75
 30
0.0
 11
184.8101451046069
 21
155.75
 31
0.0
  0
LINE
  5
13D
  8
PATTERN_FILL
  6
CONTINUOUS
 62
     7
 10
190.58364779650319
 20
165.75
 30
0.0
 11
213.10030829489861
 21
204.75
 31
0.0
  0
LINE
  5
13E
  8
PATTERN_FILL
  6
CONTINUOUS
 62
     7
 10
182.69134295108981
 20
147.75
 30
0.0
 11
187.3101451046069
 21
155.75
 31
0.0
  0
LINE
  5
13F
  8
PATTERN_FILL
  6
CONTINUOUS
 62
     7
 10
193.08364779650319
 20
165.75
 30
0.0
 11
215.60030829489861
 21
204.75
 31
0.0
  0
LINE
  5
140
  8
PATTERN_FILL
  6
CONTINUOUS
 62
     7
 10
185.19134295108989
 20
147.75
 30
0.0
 11
189.8101451046069
 21
155.75
 31
0.0
  0
LINE
  5
141
  8
PATTERN_FILL
  6
CONTINUOUS
 62
     7
 10
195.58364779650319
 20
165.75
 30
0.0
 11
217.8396413272412
 21
204.29851156816241
 31
0.0
  0
LINE
  5
142
  8
PATTERN_FILL
  6
CONTINUOUS
 62
     7
 10
187.69134295108981
 20
147.75
 30
0.0
 11
192.3101451046069
 21
155.75
 31
0.0
  0
LINE
  5
143
  8
PATTERN_FILL
  6
CONTINUOUS
 62
     7
 10
198.08364779650319
 20
165.75
 30
0.0
 11
219.25408674690041
 21
202.41827588062321
 31
0.0
  0
LINE
  5
144
  8
PATTERN_FILL
  6
CONTINUOUS
 62
     7
 10
190.19134295108981
 20
147.75
 30
0.0
 11
194.8101451046069
 21
155.75
 31
0.0
  0
LINE
  5
145
  8
PATTERN_FILL
  6
CONTINUOUS
 62
     7
 10
200.58364779650319
 20
165.75
 30
0.0
 11
219.86473588801081
 21
199.1458241997025
 31
0.0
  0
LINE
  5
146
  8
PATTERN_FILL
  6
CONTINUOUS
 62
     7
 10
192.69134295108981
 20
147.75
 30
0.0
 11
197.3101451046069
 21
155.75
 31
0.0
  0
LINE
  5
147
  8
PATTERN_FILL
  6
CONTINUOUS
 62
     7
 10
203.08364779650319
 20
165.75
 30
0.0
 11
220.3062290885799
 21
195.58038583536199
 31
0.0
  0
LINE
  5
148
  8
PATTERN_FILL
  6
CONTINUOUS
 62
     7
 10
195.19134295108981
 20
147.75
 30
0.0
 11
199.8101451046069
 21
155.75
 31
0.0
  0
LINE
  5
149
  8
PATTERN_FILL
  6
CONTINUOUS
 62
     7
 10
205.58364779650319
 20
165.75
 30
0.0
 11
220.74772228914881
 21
192.01494747102149
 31
0.0
  0
LINE
  5
14A
  8
PATTERN_FILL
  6
CONTINUOUS
 62
     7
 10
197.69134295108989
 20
147.75
 30
0.0
 11
202.3101451046069
 21
155.75
 31
0.0
  0
LINE
  5
14B
  8
PATTERN_FILL
  6
CONTINUOUS
 62
     7
 10
208.08364779650319
 20
165.75
 30
0.0
 11
221.1892154897179
 21
188.44950910668109
 31
0.0
  0
LINE
  5
14C
  8
PATTERN_FILL
  6
CONTINUOUS
 62
     7
 10
200.19134295108989
 20
147.75
 30
0.0
 11
204.8101451046069
 21
155.75
 31
0.0
  0
LINE
  5
14D
  8
PATTERN_FILL
  6
CONTINUOUS
 62
     7
 10
210.58364779650319
 20
165.75
 30
0.0
 11
221.63070869028681
 21
184.8840707423405
 31
0.0
  0
LINE
  5
14E
  8
PATTERN_FILL
  6
CONTINUOUS
 62
     7
 10
202.69134295108989
 20
147.75
 30
0.0
 11
207.3101451046069
 21
155.75
 31
0.0
  0
LINE
  5
14F
  8
PATTERN_FILL
  6
CONTINUOUS
 62
     7
 10
213.08364779650319
 20
165.75
 30
0.0
 11
222.07220189085589
 21
181.3186323780001
 31
0.0
  0
LINE
  5
150
  8
PATTERN_FILL
  6
CONTINUOUS
 62
     7
 10
205.19134295108989
 20
147.75
 30
0.0
 11
209.8101451046069
 21
155.75
 31
0.0
  0
LINE
  5
151
  8
PATTERN_FILL
  6
CONTINUOUS
 62
     7
 10
215.58364779650319
 20
165.75
 30
0.0
 11
222.51369509142489
 21
177.75319401365959
 31
0.0
  0
LINE
  5
152
  8
PATTERN_FILL
  6
CONTINUOUS
 62
     7
 10
207.69134295108989
 20
147.75
 30
0.0
 11
212.3101451046069
 21
155.75
 31
0.0
  0
LINE
  5
153
  8
PATTERN_FILL
  6
CONTINUOUS
 62
     7
 10
218.08364779650319
 20
165.75
 30
0.0
 11
222.95518829199381
 21
174.18775564931909
 31
0.0
  0
LINE
  5
154
  8
PATTERN_FILL
  6
CONTINUOUS
 62
     7
 10
210.19134295108981
 20
147.75
 30
0.0
 11
214.8101451046069
 21
155.75
 31
0.0
  0
LINE
  5
155
  8
PATTERN_FILL
  6
CONTINUOUS
 62
     7
 10
220.58364779650319
 20
165.75
 30
0.0
 11
223.39668149256289
 21
170.62231728497869
 31
0.0
  0
LINE
  5
156
  8
PATTERN_FILL
  6
CONTINUOUS
 62
     7
 10
212.69134295108989
 20
147.75
 30
0.0
 11
217.3101451046069
 21
155.75
 31
0.0
  0
LINE
  5
157
  8
PATTERN_FILL
  6
CONTINUOUS
 62
     7
 10
223.08364779650319
 20
165.75
 30
0.0
 11
223.8381746931318
 21
167.05687892063821
 31
0.0
  0
LINE
  5
158
  8
PATTERN_FILL
  6
CONTINUOUS
 62
     7
 10
215.19134295108989
 20
147.75
 30
0.0
 11
219.8101451046069
 21
155.75
 31
0.0
  0
LINE
  5
159
  8
PATTERN_FILL
  6
CONTINUOUS
 62
     7
 10
217.69134295108989
 20
147.75
 30
0.0
 11
222.3101451046069
 21
155.75
 31
0.0
  0
LINE
  5
15A
  8
PATTERN_FILL
  6
CONTINUOUS
 62
     7
 10
220.19134295108989
 20
147.75
 30
0.0
 11
221.86162713334241
 21
150.6430170667401
 31
0.0
  0
LINE
  5
15B
  8
PATTERN_FILL
  6
CONTINUOUS
 62
     7
 10
219.95423393883561
 20
198.42305025090101
 30
0.0
 11
216.30136779804411
 21
204.75
 31
0.0
  0
LINE
  5
15C
  8
PATTERN_FILL
  6
CONTINUOUS
 62
     7
 10
220.63680890431471
 20
192.91066871179439
 30
0.0
 11
213.80136779804411
 21
204.75
 31
0.0
  0
LINE
  5
15D
  8
PATTERN_FILL
  6
CONTINUOUS
 62
     7
 10
221.31938386979391
 20
187.3982871726877
 30
0.0
 11
211.30136779804411
 21
204.75
 31
0.0
  0
LINE
  5
15E
  8
PATTERN_FILL
  6
CONTINUOUS
 62
     7
 10
222.001958835273
 20
181.8859056335811
 30
0.0
 11
208.80136779804411
 21
204.75
 31
0.0
  0
LINE
  5
15F
  8
PATTERN_FILL
  6
CONTINUOUS
 62
     7
 10
222.68453380075209
 20
176.3735240944745
 30
0.0
 11
206.30136779804411
 21
204.75
 31
0.0
  0
LINE
  5
160
  8
PATTERN_FILL
  6
CONTINUOUS
 62
     7
 10
223.3671087662313
 20
170.86114255536779
 30
0.0
 11
203.80136779804411
 21
204.75
 31
0.0
  0
LINE
  5
161
  8
PATTERN_FILL
  6
CONTINUOUS
 62
     7
 10
223.81802829643939
 20
165.75
 30
0.0
 11
201.30136779804411
 21
204.75
 31
0.0
  0
LINE
  5
162
  8
PATTERN_FILL
  6
CONTINUOUS
 62
     7
 10
221.31802829643939
 20
165.75
 30
0.0
 11
198.80136779804411
 21
204.75
 31
0.0
  0
LINE
  5
163
  8
PATTERN_FILL
  6
CONTINUOUS
 62
     7
 10
218.81802829643951
 20
165.75
 30
0.0
 11
196.301367798044
 21
204.75
 31
0.0
  0
LINE
  5
164
  8
PATTERN_FILL
  6
CONTINUOUS
 62
     7
 10
222.42730318660381
 20
155.16842549283049
 30
0.0
 11
222.09153098833571
 21
155.75
 31
0.0
  0
LINE
  5
165
  8
PATTERN_FILL
  6
CONTINUOUS
 62
     7
 10
216.31802829643951
 20
165.75
 30
0.0
 11
193.80136779804411
 21
204.75
 31
0.0
  0
LINE
  5
166
  8
PATTERN_FILL
  6
CONTINUOUS
 62
     7
 10
221.9823684955976
 20
151.60894796478101
 30
0.0
 11
219.59153098833571
 21
155.75
 31
0.0
  0
LINE
  5
167
  8
PATTERN_FILL
  6
CONTINUOUS
 62
     7
 10
213.81802829643951
 20
165.75
 30
0.0
 11
191.30136779804411
 21
204.75
 31
0.0
  0
LINE
  5
168
  8
PATTERN_FILL
  6
CONTINUOUS
 62
     7
 10
221.53743380459139
 20
148.0494704367315
 30
0.0
 11
217.09153098833571
 21
155.75
 31
0.0
  0
LINE
  5
169
  8
PATTERN_FILL
  6
CONTINUOUS
 62
     7
 10
211.31802829643939
 20
165.75
 30
0.0
 11
188.801367798044
 21
204.75
 31
0.0
  0
LINE
  5
16A
  8
PATTERN_FILL
  6
CONTINUOUS
 62
     7
 10
219.21033314185269
 20
147.75
 30
0.0
 11
214.59153098833571
 21
155.75
 31
0.0
  0
LINE
  5
16B
  8
PATTERN_FILL
  6
CONTINUOUS
 62
     7
 10
208.81802829643939
 20
165.75
 30
0.0
 11
186.30136779804411
 21
204.75
 31
0.0
  0
LINE
  5
16C
  8
PATTERN_FILL
  6
CONTINUOUS
 62
     7
 10
216.71033314185269
 20
147.75
 30
0.0
 11
212.09153098833571
 21
155.75
 31
0.0
  0
LINE
  5
16D
  8
PATTERN_FILL
  6
CONTINUOUS
 62
     7
 10
206.31802829643951
 20
165.75
 30
0.0
 11
183.801367798044
 21
204.75
 31
0.0
  0
LINE
  5
16E
  8
PATTERN_FILL
  6
CONTINUOUS
 62
     7
 10
214.21033314185269
 20
147.75
 30
0.0
 11
209.59153098833571
 21
155.75
 31
0.0
  0
LINE
  5
16F
  8
PATTERN_FILL
  6
CONTINUOUS
 62
     7
 10
203.81802829643951
 20
165.75
 30
0.0
 11
181.82184006883489
 21
203.84851558305951
 31
0.0
  0
LINE
  5
170
  8
PATTERN_FILL
  6
CONTINUOUS
 62
     7
 10
211.71033314185269
 20
147.75
 30
0.0
 11
207.09153098833571
 21
155.75
 31
0.0
  0
LINE
  5
171
  8
PATTERN_FILL
  6
CONTINUOUS
 62
     7
 10
201.31802829643939
 20
165.75
 30
0.0
 11
180.4710949378767
 21
201.85794775903321
 31
0.0
  0
LINE
  5
172
  8
PATTERN_FILL
  6
CONTINUOUS
 62
     7
 10
209.21033314185269
 20
147.75
 30
0.0
 11
204.59153098833571
 21
155.75
 31
0.0
  0
LINE
  5
173
  8
PATTERN_FILL
  6
CONTINUOUS
 62
     7
 10
198.81802829643951
 20
165.75
 30
0.0
 11
180.0296017373077
 21
198.29250939469279
 31
0.0
  0
LINE
  5
174
  8
PATTERN_FILL
  6
CONTINUOUS
 62
     7
 10
206.71033314185269
 20
147.75
 30
0.0
 11
202.09153098833571
 21
155.75
 31
0.0
  0
LINE
  5
175
  8
PATTERN_FILL
  6
CONTINUOUS
 62
     7
 10
196.31802829643939
 20
165.75
 30
0.0
 11
179.5881085367387
 21
194.72707103035231
 31
0.0
  0
LINE
  5
176
  8
PATTERN_FILL
  6
CONTINUOUS
 62
     7
 10
204.21033314185269
 20
147.75
 30
0.0
 11
199.59153098833571
 21
155.75
 31
0.0
  0
LINE
  5
177
  8
PATTERN_FILL
  6
CONTINUOUS
 62
     7
 10
193.81802829643939
 20
165.75
 30
0.0
 11
179.1466153361697
 21
191.1616326660118
 31
0.0
  0
LINE
  5
178
  8
PATTERN_FILL
  6
CONTINUOUS
 62
     7
 10
201.71033314185269
 20
147.75
 30
0.0
 11
197.09153098833559
 21
155.75
 31
0.0
  0
LINE
  5
179
  8
PATTERN_FILL
  6
CONTINUOUS
 62
     7
 10
191.31802829643939
 20
165.75
 30
0.0
 11
178.7051221356007
 21
187.59619430167129
 31
0.0
  0
LINE
  5
17A
  8
PATTERN_FILL
  6
CONTINUOUS
 62
     7
 10
199.2103331418526
 20
147.75
 30
0.0
 11
194.59153098833571
 21
155.75
 31
0.0
  0
LINE
  5
17B
  8
PATTERN_FILL
  6
CONTINUOUS
 62
     7
 10
188.81802829643939
 20
165.75
 30
0.0
 11
178.26362893503159
 21
184.03075593733081
 31
0.0
  0
LINE
  5
17C
  8
PATTERN_FILL
  6
CONTINUOUS
 62
     7
 10
196.71033314185269
 20
147.75
 30
0.0
 11
192.09153098833571
 21
155.75
 31
0.0
  0
LINE
  5
17D
  8
PATTERN_FILL
  6
CONTINUOUS
 62
     7
 10
186.31802829643939
 20
165.75
 30
0.0
 11
177.82213573446271
 21
180.4653175729903
 31
0.0
  0
LINE
  5
17E
  8
PATTERN_FILL
  6
CONTINUOUS
 62
     7
 10
194.21033314185269
 20
147.75
 30
0.0
 11
189.59153098833559
 21
155.75
 31
0.0
  0
LINE
  5
17F
  8
PATTERN_FILL
  6
CONTINUOUS
 62
     7
 10
183.81802829643939
 20
165.75
 30
0.0
 11
177.38064253389359
 21
176.89987920864979
 31
0.0
  0
LINE
  5
180
  8
PATTERN_FILL
  6
CONTINUOUS
 62
     7
 10
191.71033314185269
 20
147.75
 30
0.0
 11
187.09153098833571
 21
155.75
 31
0.0
  0
LINE
  5
181
  8
PATTERN_FILL
  6
CONTINUOUS
 62
     7
 10
181.31802829643939
 20
165.75
 30
0.0
 11
176.93914933332459
 21
173.3344408443094
 31
0.0
  0
LINE
  5
182
  8
PATTERN_FILL
  6
CONTINUOUS
 62
     7
 10
189.21033314185269
 20
147.75
 30
0.0
 11
184.59153098833559
 21
155.75
 31
0.0
  0
LINE
  5
183
  8
PATTERN_FILL
  6
CONTINUOUS
 62
     7
 10
178.81802829643939
 20
165.75
 30
0.0
 11
176.49765613275559
 21
169.7690024799688
 31
0.0
  0
LINE
  5
184
  8
PATTERN_FILL
  6
CONTINUOUS
 62
     7
 10
186.7103331418526
 20
147.75
 30
0.0
 11
182.09153098833571
 21
155.75
 31
0.0
  0
LINE
  5
185
  8
PATTERN_FILL
  6
CONTINUOUS
 62
     7
 10
176.31802829643939
 20
165.75
 30
0.0
 11
176.0561629321866
 21
166.20356411562841
 31
0.0
  0
LINE
  5
186
  8
PATTERN_FILL
  6
CONTINUOUS
 62
     7
 10
184.21033314185269
 20
147.75
 30
0.0
 11
179.59153098833571
 21
155.75
 31
0.0
  0
LINE
  5
187
  8
PATTERN_FILL
  6
CONTINUOUS
 62
     7
 10
181.71033314185269
 20
147.75
 30
0.0
 11
177.61287409323199
 21
154.84700725414379
 31
0.0
  0
LINE
  5
188
  8
PATTERN_FILL
  6
CONTINUOUS
 62
     7
 10
179.21033314185269
 20
147.75
 30
0.0
 11
178.3037104235824
 21
149.32031661134019
 31
0.0
  0
LINE
  5
189
  8
SPEC
  6
CONTINUOUS
 62
     7
 10
-64.999999999999986
 20
383.53181499999999
 30
0.0
 11
230.0
 21
383.53181499999999
 31
0.0
  0
LINE
  5
18A
  8
SPEC
  6
CONTINUOUS
 62
     7
 10
-64.999999999999986
 20
376.03181499999999
 30
0.0
 11
230.0
 21
376.03181499999999
 31
0.0
  0
LINE
  5
18B
  8
SPEC
  6
CONTINUOUS
 62
     7
 10
-64.999999999999986
 20
346.03181499999988
 30
0.0
 11
230.0
 21
346.03181499999988
 31
0.0
  0
LINE
  5
18C
  8
SPEC
  6
CONTINUOUS
 62
     7
 10
-64.999999999999986
 20
353.53181499999988
 30
0.0
 11
230.0
 21
353.53181499999988
 31
0.0
  0
LINE
  5
18D
  8
SPEC
  6
CONTINUOUS
 62
     7
 10
-64.999999999999986
 20
361.03181499999999
 30
0.0
 11
230.0
 21
361.03181499999999
 31
0.0
  0
LINE
  5
18E
  8
SPEC
  6
CONTINUOUS
 62
     7
 10
-64.999999999999986
 20
338.53181499999988
 30
0.0
 11
230.0
 21
338.53181499999988
 31
0.0
  0
LINE
  5
18F
  8
SPEC
  6
CONTINUOUS
 62
     7
 10
-64.999999999999986
 20
323.53181499999988
 30
0.0
 11
230.0
 21
323.53181499999988
 31
0.0
  0
LINE
  5
190
  8
SPEC
  6
CONTINUOUS
 62
     7
 10
-64.999999999999986
 20
331.03181499999999
 30
0.0
 11
230.0
 21
331.03181499999999
 31
0.0
  0
LINE
  5
191
  8
SPEC
  6
CONTINUOUS
 62
     7
 10
-64.999999999999986
 20
368.53181499999999
 30
0.0
 11
230.0
 21
368.53181499999999
 31
0.0
  0
TEXT
  5
192
  8
SPEC
 62
     7
 10
1.586372282022992
 20
377.87444102743319
 30
0.0
 40
3.8006224999999989
  1
ダイナミック型(オン/オフスイッチ付)
 41
0.7
 11
1.586372282022992
 21
381.67506352743322
 31
0.0
 73
     3
1001
ACADANNOTATIVE
1000
AnnotativeData
1002
{
1070
     1
1070
     0
1002
}
  0
LINE
  5
193
  8
SPEC
  6
CONTINUOUS
 62
     7
 10
-64.999999999999986
 20
383.53181499999999
 30
0.0
 11
-64.999999999999986
 21
301.03181499999988
 31
0.0
  0
TEXT
  5
194
  8
SPEC
 62
     7
 10
-62.5
 20
386.318355
 30
0.0
 40
4.8865234375000002
  1
仕様
 41
0.7
 11
-62.5
 21
391.20487843749999
 31
0.0
 73
     3
1001
ACADANNOTATIVE
1000
AnnotativeData
1002
{
1070
     1
1070
     0
1002
}
  0
LINE
  5
195
  8
SPEC
  6
CONTINUOUS
 62
     7
 10
0.0
 20
383.53181499999999
 30
0.0
 11
0.0
 21
301.03181499999988
 31
0.0
  0
LINE
  5
196
  8
SPEC
  6
CONTINUOUS
 62
     7
 10
230.0
 20
383.53181499999999
 30
0.0
 11
230.0
 21
301.03181499999988
 31
0.0
  0
TEXT
  5
197
  8
SPEC
 62
     7
 10
-62.981436081511049
 20
347.86519012057829
 30
0.0
 40
3.8006224999999989
  1
最大音圧レベル
 41
0.7
 11
-62.981436081511049
 21
351.66581262057832
 31
0.0
 73
     3
1001
ACADANNOTATIVE
1000
AnnotativeData
1002
{
1070
     1
1070
     0
1002
}
  0
TEXT
  5
198
  8
SPEC
 62
     7
 10
-63.16337126587301
 20
377.96731582807979
 30
0.0
 40
3.8006224999999989
  1
形式
 41
0.7
 11
-63.16337126587301
 21
381.76793832807982
 31
0.0
 73
     3
1001
ACADANNOTATIVE
1000
AnnotativeData
1002
{
1070
     1
1070
     0
1002
}
  0
TEXT
  5
199
  8
SPEC
 62
     7
 10
-63.562841307755569
 20
325.50070086874177
 30
0.0
 40
3.8006224999999989
  1
コネクター
 41
0.7
 11
-63.562841307755569
 21
329.30132336874181
 31
0.0
 73
     3
1001
ACADANNOTATIVE
1000
AnnotativeData
1002
{
1070
     1
1070
     0
1002
}
  0
TEXT
  5
19A
  8
SPEC
 62
     7
 10
-63.273027008445808
 20
355.33998530067947
 30
0.0
 40
3.8006224999999989
  1
開回路感度
 41
0.7
 11
-63.273027008445808
 21
359.14060780067939
 31
0.0
 73
     3
1001
ACADANNOTATIVE
1000
AnnotativeData
1002
{
1070
     1
1070
     0
1002
}
  0
TEXT
  5
19B
  8
SPEC
 62
     7
 10
-63.309109929425823
 20
332.87128728177282
 30
0.0
 40
3.8006224999999989
  1
インピーダンス
 41
0.7
 11
-63.309109929425823
 21
336.6719097817728
 31
0.0
 73
     3
1001
ACADANNOTATIVE
1000
AnnotativeData
1002
{
1070
     1
1070
     0
1002
}
  0
TEXT
  5
19C
  8
SPEC
 62
     7
 10
-63.202866812874092
 20
370.48196937653239
 30
0.0
 40
3.8006224999999989
  1
指向性
 41
0.7
 11
-63.202866812874092
 21
374.28259187653242
 31
0.0
 73
     3
1001
ACADANNOTATIVE
1000
AnnotativeData
1002
{
1070
     1
1070
     0
1002
}
  0
TEXT
  5
19D
  8
SPEC
 62
     7
 10
-63.09028677862706
 20
362.97336893790981
 30
0.0
 40
3.8006224999999989
  1
周波数特性
 41
0.7
 11
-63.09028677862706
 21
366.77399143790979
 31
0.0
 73
     3
1001
ACADANNOTATIVE
1000
AnnotativeData
1002
{
1070
     1
1070
     0
1002
}
  0
TEXT
  5
19E
  8
SPEC
 62
     7
 10
1.747095523220338
 20
347.87218058389828
 30
0.0
 40
3.8006224999999989
  1
156dB SPL(THD3%%%)
 41
0.7
 11
1.747095523220338
 21
351.67280308389832
 31
0.0
 73
     3
1001
ACADANNOTATIVE
1000
AnnotativeData
1002
{
1070
     1
1070
     0
1002
}
  0
TEXT
  5
19F
  8
SPEC
 62
     7
 10
2.0112847817753581
 20
325.31894298177542
 30
0.0
 40
3.8006224999999989
  1
XLR3ピンオス
 41
0.7
 11
2.011284781775359
 21
329.11956548177528
 31
0.0
 73
     3
1001
ACADANNOTATIVE
1000
AnnotativeData
1002
{
1070
     1
1070
     0
1002
}
  0
TEXT
  5
1A0
  8
SPEC
 62
     7
 10
2.1181778702896978
 20
355.34309920912659
 30
0.0
 40
3.8006224999999989
  1
-52dBV re 1V/Pa
 41
0.7
 11
2.1181778702896992
 21
359.14372170912662
 31
0.0
 73
     3
1001
ACADANNOTATIVE
1000
AnnotativeData
1002
{
1070
     1
1070
     0
1002
}
  0
TEXT
  5
1A1
  8
SPEC
 62
     7
 10
1.9587134303389739
 20
332.81731312440621
 30
0.0
 40
3.8006224999999989
  1
600\U+03A9以下
 41
0.7
 11
1.9587134303389739
 21
336.61793562440619
 31
0.0
 73
     3
1001
ACADANNOTATIVE
1000
AnnotativeData
1002
{
1070
     1
1070
     0
1002
}
  0
TEXT
  5
1A2
  8
SPEC
 62
     7
 10
1.9594653283686361
 20
362.8202786378248
 30
0.0
 40
3.8006224999999989
  1
70Hz～20kHz
 41
0.7
 11
1.9594653283686361
 21
366.62090113782477
 31
0.0
 73
     3
1001
ACADANNOTATIVE
1000
AnnotativeData
1002
{
1070
     1
1070
     0
1002
}
  0
TEXT
  5
1A3
  8
SPEC
 62
     7
 10
1.85315510945621
 20
370.1076582
 30
0.0
 40
3.8006224999999989
  1
スーパーカーディオイド
 41
0.7
 11
1.85315510945621
 21
373.90828069999998
 31
0.0
 73
     3
1001
ACADANNOTATIVE
1000
AnnotativeData
1002
{
1070
     1
1070
     0
1002
}
  0
LINE
  5
1A4
  8
SPEC
  6
CONTINUOUS
 62
     7
 10
-64.999999999999986
 20
316.03181499999988
 30
0.0
 11
230.0
 21
316.03181499999988
 31
0.0
  0
LINE
  5
1A5
  8
SPEC
  6
CONTINUOUS
 62
     7
 10
-64.999999999999986
 20
308.53181499999988
 30
0.0
 11
230.0
 21
308.53181499999988
 31
0.0
  0
TEXT
  5
1A6
  8
SPEC
 62
     7
 10
-63.138888888888857
 20
310.59148256681732
 30
0.0
 40
4.321527777777777
  1
重量
 41
0.7
 11
-63.138888888888857
 21
314.91301034459508
 31
0.0
 73
     3
1001
ACADANNOTATIVE
1000
AnnotativeData
1002
{
1070
     1
1070
     0
1002
}
  0
TEXT
  5
1A7
  8
SPEC
 62
     7
 10
1.1649473558134951
 20
317.84206955139712
 30
0.0
 40
4.321527777777777
  1
\U+03C651\U+00D7186mm
 41
0.7
 11
1.1649473558134951
 21
322.16359732917488
 31
0.0
 73
     3
1001
ACADANNOTATIVE
1000
AnnotativeData
1002
{
1070
     1
1070
     0
1002
}
  0
TEXT
  5
1A8
  8
SPEC
 62
     7
 10
1.9036347415328541
 20
310.47976493089448
 30
0.0
 40
4.321527777777777
  1
約330g
 41
0.7
 11
1.9036347415328541
 21
314.80129270867218
 31
0.0
 73
     3
1001
ACADANNOTATIVE
1000
AnnotativeData
1002
{
1070
     1
1070
     0
1002
}
  0
TEXT
  5
1A9
  8
SPEC
 62
     7
 10
-63.245142154854783
 20
318.11576360554233
 30
0.0
 40
4.321527777777777
  1
寸法
 41
0.7
 11
-63.245142154854783
 21
322.43729138331997
 31
0.0
 73
     3
1001
ACADANNOTATIVE
1000
AnnotativeData
1002
{
1070
     1
1070
     0
1002
}
  0
TEXT
  5
1AA
  8
SPEC
 62
     7
 10
-63.044629105316709
 20
303.25082621578451
 30
0.0
 40
4.321527777777777
  1
付属品
 41
0.7
 11
-63.044629105316709
 21
307.57235399356222
 31
0.0
 73
     3
1001
ACADANNOTATIVE
1000
AnnotativeData
1002
{
1070
     1
1070
     0
1002
}
  0
TEXT
  5
1AB
  8
SPEC
 62
     7
 10
1.7070435028787749
 20
303.20036277520683
 30
0.0
 40
3.8006293402777769
  1
マイクホルダー,専用マイクケース
 41
0.7
 11
1.7070435028787749
 21
307.00099211548462
 31
0.0
 73
     3
1001
ACADANNOTATIVE
1000
AnnotativeData
1002
{
1070
     1
1070
     0
1002
}
  0
LINE
  5
1AC
  8
SPEC
  6
CONTINUOUS
 62
     7
 10
-64.999999999999986
 20
301.03181499999988
 30
0.0
 11
230.0
 21
301.03181499999988
 31
0.0
  0
TEXT
  5
1AD
  8
SPEC
 62
     7
 10
-62.981436081511049
 20
340.3651901205784
 30
0.0
 40
3.8006224999999989
  1
等価雑音レベル
 41
0.7
 11
-62.981436081511049
 21
344.16581262057832
 31
0.0
 73
     3
1001
ACADANNOTATIVE
1000
AnnotativeData
1002
{
1070
     1
1070
     0
1002
}
  0
TEXT
  5
1AE
  8
SPEC
 62
     7
 10
1.747095523220338
 20
340.37218058389828
 30
0.0
 40
3.8006224999999989
  1
18dB SPL(Aウェイト)
 41
0.7
 11
1.747095523220338
 21
344.17280308389832
 31
0.0
 73
     3
1001
ACADANNOTATIVE
1000
AnnotativeData
1002
{
1070
     1
1070
     0
1002
}
  0
TEXT
  5
1AF
  8
DIMNSIONS
 62
     7
 10
60.0
 20
-91.929204999999968
 30
0.0
 40
4.8865234375000002
  1
(単位：mm)
 41
0.7
 11
60.0
 21
-87.042681562499979
 31
0.0
 73
     3
1001
ACADANNOTATIVE
1000
AnnotativeData
1002
{
1070
     1
1070
     0
1002
}
  0
LINE
  5
1B0
  8
DIMNSIONS
  6
CONTINUOUS
 62
     7
 10
43.031222920256987
 20
231.96877707974301
 30
0.0
 11
62.5
 21
212.5
 31
0.0
  0
LINE
  5
1B1
  8
DIMNSIONS
  6
CONTINUOUS
 62
     7
 10
43.031222920256987
 20
231.96877707974301
 30
0.0
 11
47.515216622627527
 21
229.37994210863479
 31
0.0
  0
LINE
  5
1B2
  8
DIMNSIONS
  6
CONTINUOUS
 62
     7
 10
43.031222920256987
 20
231.96877707974301
 30
0.0
 11
45.620057891365221
 21
227.48478337737239
 31
0.0
  0
LINE
  5
1B3
  8
DIMNSIONS
  6
CONTINUOUS
 62
     7
 10
62.5
 20
212.5
 30
0.0
 11
80.6111111111111
 21
212.5
 31
0.0
  0
TEXT
  5
1B4
  8
DIMNSIONS
 62
     7
 10
66.5
 20
214.48777777777781
 30
0.0
 40
5.4294704861111107
  1
\U+03C651
 41
0.7
 11
66.5
 21
219.91724826388889
 31
0.0
 73
     3
1001
ACADANNOTATIVE
1000
AnnotativeData
1002
{
1070
     1
1070
     0
1002
}
  0
LINE
  5
1B5
  8
DIMNSIONS
  6
CONTINUOUS
 62
     7
 10
33.308504678941958
 20
-39.558504678941972
 30
0.0
 11
56.25
 21
-62.5
 31
0.0
  0
LINE
  5
1B6
  8
DIMNSIONS
  6
CONTINUOUS
 62
     7
 10
33.308504678941958
 20
-39.558504678941972
 30
0.0
 11
37.792498381312512
 21
-42.147339650050178
 31
0.0
  0
LINE
  5
1B7
  8
DIMNSIONS
  6
CONTINUOUS
 62
     7
 10
33.308504678941958
 20
-39.558504678941972
 30
0.0
 11
35.897339650050192
 21
-44.042498381312527
 31
0.0
  0
LINE
  5
1B8
  8
DIMNSIONS
  6
CONTINUOUS
 62
     7
 10
56.25
 20
-62.5
 30
0.0
 11
81.416666666666643
 21
-62.5
 31
0.0
  0
TEXT
  5
1B9
  8
DIMNSIONS
 62
     7
 10
60.249999999999993
 20
-60.512222222222249
 30
0.0
 40
5.4294704861111107
  1
\U+03C623.5
 41
0.7
 11
60.249999999999993
 21
-55.082751736111142
 31
0.0
 73
     3
1001
ACADANNOTATIVE
1000
AnnotativeData
1002
{
1070
     1
1070
     0
1002
}
  0
LINE
  5
1BA
  8
DIMNSIONS
  6
CONTINUOUS
 62
     7
 10
12.0
 20
18.75
 30
0.0
 11
-22.75
 21
18.75
 31
0.0
  0
LINE
  5
1BB
  8
DIMNSIONS
  6
CONTINUOUS
 62
     7
 10
3.4999999999999849
 20
204.75
 30
0.0
 11
-22.75
 21
204.75
 31
0.0
  0
LINE
  5
1BC
  8
DIMNSIONS
  6
CONTINUOUS
 62
     7
 10
-18.75
 20
18.75
 30
0.0
 11
-18.75
 21
204.75
 31
0.0
  0
LINE
  5
1BD
  8
DIMNSIONS
  6
CONTINUOUS
 62
     7
 10
-18.75
 20
18.75
 30
0.0
 11
-20.090079590300491
 21
23.751245117187491
 31
0.0
  0
LINE
  5
1BE
  8
DIMNSIONS
  6
CONTINUOUS
 62
     7
 10
-18.75
 20
18.75
 30
0.0
 11
-17.409920409699499
 21
23.751245117187491
 31
0.0
  0
LINE
  5
1BF
  8
DIMNSIONS
  6
CONTINUOUS
 62
     7
 10
-18.75
 20
204.75
 30
0.0
 11
-17.409920409699499
 21
199.74875488281239
 31
0.0
  0
LINE
  5
1C0
  8
DIMNSIONS
  6
CONTINUOUS
 62
     7
 10
-18.75
 20
204.75
 30
0.0
 11
-20.090079590300491
 21
199.74875488281239
 31
0.0
  0
TEXT
  5
1C1
  8
DIMNSIONS
 62
     7
 10
-20.737777777777769
 20
106.4583333333333
 30
0.0
 40
5.4294704861111107
  1
186
 50
90.0
 41
0.7
 11
-26.16724826388889
 21
106.4583333333333
 31
0.0
 73
     3
1001
ACADANNOTATIVE
1000
AnnotativeData
1002
{
1070
     1
1070
     0
1002
}
  0
LINE
  5
1C2
  8
DIMNSIONS
  6
CONTINUOUS
 62
     7
 10
12.0
 20
18.75
 30
0.0
 11
-10.25
 21
18.75
 31
0.0
  0
LINE
  5
1C3
  8
DIMNSIONS
  6
CONTINUOUS
 62
     7
 10
6.0
 20
126.75
 30
0.0
 11
-10.25
 21
126.75
 31
0.0
  0
LINE
  5
1C4
  8
DIMNSIONS
  6
CONTINUOUS
 62
     7
 10
-6.25
 20
18.75
 30
0.0
 11
-6.25
 21
126.75
 31
0.0
  0
LINE
  5
1C5
  8
DIMNSIONS
  6
CONTINUOUS
 62
     7
 10
-6.25
 20
18.75
 30
0.0
 11
-7.5900795903004887
 21
23.751245117187491
 31
0.0
  0
LINE
  5
1C6
  8
DIMNSIONS
  6
CONTINUOUS
 62
     7
 10
-6.25
 20
18.75
 30
0.0
 11
-4.9099204096995086
 21
23.751245117187491
 31
0.0
  0
LINE
  5
1C7
  8
DIMNSIONS
  6
CONTINUOUS
 62
     7
 10
-6.25
 20
126.75
 30
0.0
 11
-4.9099204096995086
 21
121.74875488281251
 31
0.0
  0
LINE
  5
1C8
  8
DIMNSIONS
  6
CONTINUOUS
 62
     7
 10
-6.25
 20
126.75
 30
0.0
 11
-7.5900795903004887
 21
121.74875488281251
 31
0.0
  0
TEXT
  5
1C9
  8
DIMNSIONS
 62
     7
 10
-8.2377777777777812
 20
67.458333333333343
 30
0.0
 40
5.4294704861111107
  1
108
 50
90.0
 41
0.7
 11
-13.66724826388889
 21
67.458333333333343
 31
0.0
 73
     3
1001
ACADANNOTATIVE
1000
AnnotativeData
1002
{
1070
     1
1070
     0
1002
}
  0
TEXT
  5
1CA
  8
DATA
 62
     7
 10
200.0
 20
-94.206404999999947
 30
0.0
 40
4.8865234375000002
  1
D5S
 41
0.7
 11
200.0
 21
-89.319881562499958
 31
0.0
 73
     3
1001
ACADANNOTATIVE
1000
AnnotativeData
1002
{
1070
     1
1070
     0
1002
}
  0
TEXT
  5
1CB
  8
DATA
 62
     7
 10
200.0
 20
-79.706404999999975
 30
0.0
 40
4.8865234375000002
  1
AKG
 41
0.7
 11
200.0
 21
-74.819881562499972
 31
0.0
 73
     3
1001
ACADANNOTATIVE
1000
AnnotativeData
1002
{
1070
     1
1070
     0
1002
}
  0
TEXT
  5
1CC
  8
DATA
 62
     7
 10
195.0
 20
-86.660317399999997
 30
0.0
 40
3.257687421875
  1
ダイナミック型マイクロホン
 41
0.7
 11
195.0
 21
-83.402629978124978
 31
0.0
 73
     3
1001
ACADANNOTATIVE
1000
AnnotativeData
1002
{
1070
     1
1070
     0
1002
}
  0
TEXT
  5
1CD
  8
DATA
 62
     7
 10
-60.0
 20
-107.99218500000001
 30
0.0
 40
3.2576822916666659
  1
仕様および外観は予告なく変更されることがありますので、ご了承ください。
 41
0.7
 11
-60.0
 21
-104.7345027083333
 31
0.0
 73
     3
1001
ACADANNOTATIVE
1000
AnnotativeData
1002
{
1070
     1
1070
     0
1002
}
  0
LINE
  5
1CE
  8
DATA
  6
CONTINUOUS
 62
     7
 10
16.0
 20
18.75
 30
0.0
 11
13.25
 21
21.75
 31
0.0
  0
LINE
  5
1CF
  8
DATA
  6
CONTINUOUS
 62
     7
 10
34.0
 20
18.75
 30
0.0
 11
36.75
 21
21.75
 31
0.0
  0
LINE
  5
1D0
  8
DATA
  6
CONTINUOUS
 62
     7
 10
16.0
 20
18.75
 30
0.0
 11
34.0
 21
18.75
 31
0.0
  0
LINE
  5
1D1
  8
DATA
  6
CONTINUOUS
 62
     7
 10
13.25
 20
21.75
 30
0.0
 11
10.0
 21
126.75
 31
0.0
  0
LINE
  5
1D2
  8
DATA
  6
CONTINUOUS
 62
     7
 10
36.75
 20
21.75
 30
0.0
 11
40.0
 21
126.75
 31
0.0
  0
LINE
  5
1D3
  8
DATA
  6
CONTINUOUS
 62
     7
 10
10.0
 20
126.75
 30
0.0
 11
5.3100000000000014
 21
140.15000000000001
 31
0.0
  0
LINE
  5
1D4
  8
DATA
  6
CONTINUOUS
 62
     7
 10
5.2049999999999983
 20
140.44999999999999
 30
0.0
 11
3.0
 21
146.75
 31
0.0
  0
LINE
  5
1D5
  8
DATA
  6
CONTINUOUS
 62
     7
 10
40.0
 20
126.75
 30
0.0
 11
44.689999999999998
 21
140.15000000000001
 31
0.0
  0
LINE
  5
1D6
  8
DATA
  6
CONTINUOUS
 62
     7
 10
44.795000000000002
 20
140.44999999999999
 30
0.0
 11
47.0
 21
146.75
 31
0.0
  0
LINE
  5
1D7
  8
DATA
  6
CONTINUOUS
 62
     7
 10
44.795000000000002
 20
140.44999999999999
 30
0.0
 11
5.2050000000000116
 21
140.44999999999999
 31
0.0
  0
LINE
  5
1D8
  8
DATA
  6
CONTINUOUS
 62
     7
 10
44.690000000000012
 20
140.15000000000001
 30
0.0
 11
5.3100000000000014
 21
140.15000000000001
 31
0.0
  0
LINE
  5
1D9
  8
DATA
  6
CONTINUOUS
 62
     7
 10
10.0
 20
126.75
 30
0.0
 11
40.0
 21
126.75
 31
0.0
  0
LINE
  5
1DA
  8
DATA
  6
CONTINUOUS
 62
     7
 10
8.5
 20
140.15000000000001
 30
0.0
 11
8.5
 21
140.44999999999999
 31
0.0
  0
LINE
  5
1DB
  8
DATA
  6
CONTINUOUS
 62
     7
 10
41.5
 20
140.15000000000001
 30
0.0
 11
41.5
 21
140.44999999999999
 31
0.0
  0
LINE
  5
1DC
  8
DATA
  6
CONTINUOUS
 62
     7
 10
13.25
 20
21.75
 30
0.0
 11
36.75
 21
21.75
 31
0.0
  0
LINE
  5
1DD
  8
DATA
  6
CONTINUOUS
 62
     7
 10
20.0
 20
68.25
 30
0.0
 11
20.0
 21
91.549999999999983
 31
0.0
  0
LINE
  5
1DE
  8
DATA
  6
CONTINUOUS
 62
     7
 10
29.5
 20
67.75
 30
0.0
 11
20.5
 21
67.75
 31
0.0
  0
LINE
  5
1DF
  8
DATA
  6
CONTINUOUS
 62
     7
 10
30.0
 20
91.549999999999983
 30
0.0
 11
30.0
 21
68.25
 31
0.0
  0
LINE
  5
1E0
  8
DATA
  6
CONTINUOUS
 62
     7
 10
20.5
 20
92.049999999999997
 30
0.0
 11
29.5
 21
92.049999999999997
 31
0.0
  0
LINE
  5
1E1
  8
DATA
  6
CONTINUOUS
 62
     7
 10
20.800000000000001
 20
68.049999999999983
 30
0.0
 11
29.20000000000001
 21
68.049999999999983
 31
0.0
  0
LINE
  5
1E2
  8
DATA
  6
CONTINUOUS
 62
     7
 10
20.800000000000001
 20
88.049999999999969
 30
0.0
 11
29.20000000000001
 21
88.049999999999969
 31
0.0
  0
LINE
  5
1E3
  8
DATA
  6
CONTINUOUS
 62
     7
 10
20.300000000000001
 20
68.549999999999997
 30
0.0
 11
20.300000000000001
 21
87.549999999999983
 31
0.0
  0
LINE
  5
1E4
  8
DATA
  6
CONTINUOUS
 62
     7
 10
29.699999999999999
 20
87.549999999999983
 30
0.0
 11
29.699999999999999
 21
68.549999999999997
 31
0.0
  0
ARC
  5
1E5
  8
DATA
  6
CONTINUOUS
 62
     7
 10
20.5
 20
68.25
 30
0.0
 40
0.5
 50
180.0
 51
270.0
  0
ARC
  5
1E6
  8
DATA
  6
CONTINUOUS
 62
     7
 10
20.800000000000001
 20
68.549999999999997
 30
0.0
 40
0.5
 50
180.0
 51
270.0
  0
ARC
  5
1E7
  8
DATA
  6
CONTINUOUS
 62
     7
 10
29.20000000000001
 20
68.549999999999997
 30
0.0
 40
0.5
 50
270.0
 51
0.0
  0
ARC
  5
1E8
  8
DATA
  6
CONTINUOUS
 62
     7
 10
29.5
 20
68.25
 30
0.0
 40
0.5
 50
270.0
 51
0.0
  0
ARC
  5
1E9
  8
DATA
  6
CONTINUOUS
 62
     7
 10
20.800000000000001
 20
87.549999999999983
 30
0.0
 40
0.5
 50
90.0
 51
180.0
  0
ARC
  5
1EA
  8
DATA
  6
CONTINUOUS
 62
     7
 10
29.20000000000001
 20
87.549999999999983
 30
0.0
 40
0.5
 50
0.0
 51
90.0
  0
ARC
  5
1EB
  8
DATA
  6
CONTINUOUS
 62
     7
 10
20.5
 20
91.549999999999983
 30
0.0
 40
0.5
 50
90.0
 51
180.0
  0
ARC
  5
1EC
  8
DATA
  6
CONTINUOUS
 62
     7
 10
29.5
 20
91.549999999999983
 30
0.0
 40
0.5
 50
0.0
 51
90.0
  0
LINE
  5
1ED
  8
DATA
  6
CONTINUOUS
 62
     7
 10
20.300000000000001
 20
77.049999999999983
 30
0.0
 11
29.699999999999999
 21
77.049999999999983
 31
0.0
  0
LINE
  5
1EE
  8
DATA
  6
CONTINUOUS
 62
     7
 10
20.300000000000001
 20
77.950000000000003
 30
0.0
 11
29.699999999999999
 21
77.950000000000003
 31
0.0
  0
TEXT
  5
1EF
  8
DATA
 62
     7
 10
23.48051059378659
 20
71.112227758475399
 30
0.0
 40
1.6288411458333329
  1
OFF
 41
0.7
 11
23.48051059378659
 21
72.741068904308733
 31
0.0
 73
     3
1001
ACADANNOTATIVE
1000
AnnotativeData
1002
{
1070
     1
1070
     0
1002
}
  0
TEXT
  5
1F0
  8
DATA
 62
     7
 10
23.99822823579877
 20
83.676179878559182
 30
0.0
 40
1.6288411458333329
  1
ON
 41
0.7
 11
23.99822823579877
 21
85.305021024392516
 31
0.0
 73
     3
1001
ACADANNOTATIVE
1000
AnnotativeData
1002
{
1070
     1
1070
     0
1002
}
  0
LINE
  5
1F1
  8
DATA
  6
CONTINUOUS
 62
     7
 10
25.899999999999991
 20
85.761114168767406
 30
0.0
 11
24.100000000000009
 21
85.761114168767406
 31
0.0
  0
LINE
  5
1F2
  8
DATA
  6
CONTINUOUS
 62
     7
 10
24.100000000000009
 20
85.761114168767406
 30
0.0
 11
25.0
 21
87.111114168767401
 31
0.0
  0
LINE
  5
1F3
  8
DATA
  6
CONTINUOUS
 62
     7
 10
25.899999999999991
 20
85.761114168767406
 30
0.0
 11
25.0
 21
87.111114168767401
 31
0.0
  0
LINE
  5
1F4
  8
DATA
  6
CONTINUOUS
 62
     7
 10
25.899999999999991
 20
70.564815053568054
 30
0.0
 11
24.100000000000009
 21
70.564815053568054
 31
0.0
  0
LINE
  5
1F5
  8
DATA
  6
CONTINUOUS
 62
     7
 10
24.100000000000009
 20
70.564815053568054
 30
0.0
 11
25.0
 21
69.21481505356806
 31
0.0
  0
LINE
  5
1F6
  8
DATA
  6
CONTINUOUS
 62
     7
 10
25.899999999999991
 20
70.564815053568054
 30
0.0
 11
25.0
 21
69.21481505356806
 31
0.0
  0
TEXT
  5
1F7
  8
DATA
 62
     7
 10
22.42530855999432
 20
27.191084642241591
 30
0.0
 40
3.8006293402777769
  1
D5
 41
0.7
 11
22.42530855999432
 21
30.991713982519371
 31
0.0
 73
     3
1001
ACADANNOTATIVE
1000
AnnotativeData
1002
{
1070
     1
1070
     0
1002
}
  0
CIRCLE
  5
1F8
  8
DATA
  6
CONTINUOUS
 62
     7
 10
25.0
 20
-31.25
 30
0.0
 40
25.5
  0
ARC
  5
1F9
  8
DATA
  6
CONTINUOUS
 62
     7
 10
25.0
 20
-31.25
 30
0.0
 40
9.0
 50
232.28391039456571
 51
219.53449457892091
  0
CIRCLE
  5
1FA
  8
DATA
  6
CONTINUOUS
 62
     7
 10
25.0
 20
-31.25
 30
0.0
 40
11.75
  0
CIRCLE
  5
1FB
  8
DATA
  6
CONTINUOUS
 62
     7
 10
25.0
 20
-27.150000000000009
 30
0.0
 40
1.1749999999999969
  0
CIRCLE
  5
1FC
  8
DATA
  6
CONTINUOUS
 62
     7
 10
20.899999999999991
 20
-30.744477669901752
 30
0.0
 40
1.1749999999999969
  0
CIRCLE
  5
1FD
  8
DATA
  6
CONTINUOUS
 62
     7
 10
29.100000000000009
 20
-30.744477669901752
 30
0.0
 40
1.1749999999999821
  0
ARC
  5
1FE
  8
DATA
  6
CONTINUOUS
 62
     7
 10
18.75
 20
-37.701572805337094
 30
0.0
 40
1.0000000000000011
 50
133.7230710019507
 51
318.09533397153518
  0
CIRCLE
  5
1FF
  8
DATA
  6
CONTINUOUS
 62
     7
 10
25.0
 20
107.75
 30
0.0
 40
9.0
  0
LINE
  5
200
  8
DATA
  6
CONTINUOUS
 62
     7
 10
91.0
 20
18.75
 30
0.0
 11
88.250000000000014
 21
21.75
 31
0.0
  0
LINE
  5
201
  8
DATA
  6
CONTINUOUS
 62
     7
 10
109.0
 20
18.75
 30
0.0
 11
111.75
 21
21.75
 31
0.0
  0
LINE
  5
202
  8
DATA
  6
CONTINUOUS
 62
     7
 10
91.0
 20
18.75
 30
0.0
 11
109.0
 21
18.75
 31
0.0
  0
LINE
  5
203
  8
DATA
  6
CONTINUOUS
 62
     7
 10
88.250000000000014
 20
21.75
 30
0.0
 11
85.866666666666646
 21
98.750000000000853
 31
0.0
  0
LINE
  5
204
  8
DATA
  6
CONTINUOUS
 62
     7
 10
85.309523809523824
 20
116.7499999999991
 30
0.0
 11
85.0
 21
126.75
 31
0.0
  0
LINE
  5
205
  8
DATA
  6
CONTINUOUS
 62
     7
 10
111.75
 20
21.75
 30
0.0
 11
115.0
 21
126.75
 31
0.0
  0
LINE
  5
206
  8
DATA
  6
CONTINUOUS
 62
     7
 10
85.0
 20
126.75
 30
0.0
 11
80.310000000000002
 21
140.15000000000001
 31
0.0
  0
LINE
  5
207
  8
DATA
  6
CONTINUOUS
 62
     7
 10
80.204999999999998
 20
140.44999999999999
 30
0.0
 11
78.0
 21
146.75
 31
0.0
  0
LINE
  5
208
  8
DATA
  6
CONTINUOUS
 62
     7
 10
115.0
 20
126.75
 30
0.0
 11
119.69
 21
140.15000000000001
 31
0.0
  0
LINE
  5
209
  8
DATA
  6
CONTINUOUS
 62
     7
 10
119.795
 20
140.44999999999999
 30
0.0
 11
122.0
 21
146.75
 31
0.0
  0
LINE
  5
20A
  8
DATA
  6
CONTINUOUS
 62
     7
 10
119.795
 20
140.44999999999999
 30
0.0
 11
80.205000000000013
 21
140.44999999999999
 31
0.0
  0
LINE
  5
20B
  8
DATA
  6
CONTINUOUS
 62
     7
 10
119.69
 20
140.15000000000001
 30
0.0
 11
80.310000000000002
 21
140.15000000000001
 31
0.0
  0
LINE
  5
20C
  8
DATA
  6
CONTINUOUS
 62
     7
 10
85.0
 20
126.75
 30
0.0
 11
115.0
 21
126.75
 31
0.0
  0
LINE
  5
20D
  8
DATA
  6
CONTINUOUS
 62
     7
 10
83.499999999999986
 20
140.15000000000001
 30
0.0
 11
83.499999999999986
 21
140.44999999999999
 31
0.0
  0
LINE
  5
20E
  8
DATA
  6
CONTINUOUS
 62
     7
 10
116.5
 20
140.15000000000001
 30
0.0
 11
116.5
 21
140.44999999999999
 31
0.0
  0
LINE
  5
20F
  8
DATA
  6
CONTINUOUS
 62
     7
 10
88.250000000000014
 20
21.75
 30
0.0
 11
111.75
 21
21.75
 31
0.0
  0
LINE
  5
210
  8
DATA
  6
CONTINUOUS
 62
     7
 10
191.0
 20
18.75
 30
0.0
 11
188.25
 21
21.75
 31
0.0
  0
LINE
  5
211
  8
DATA
  6
CONTINUOUS
 62
     7
 10
209.0
 20
18.75
 30
0.0
 11
211.75
 21
21.75
 31
0.0
  0
LINE
  5
212
  8
DATA
  6
CONTINUOUS
 62
     7
 10
191.0
 20
18.75
 30
0.0
 11
209.0
 21
18.75
 31
0.0
  0
LINE
  5
213
  8
DATA
  6
CONTINUOUS
 62
     7
 10
188.25
 20
21.75
 30
0.0
 11
185.0
 21
126.75
 31
0.0
  0
LINE
  5
214
  8
DATA
  6
CONTINUOUS
 62
     7
 10
211.75
 20
21.75
 30
0.0
 11
215.0
 21
126.75
 31
0.0
  0
LINE
  5
215
  8
DATA
  6
CONTINUOUS
 62
     7
 10
185.0
 20
126.75
 30
0.0
 11
180.31
 21
140.15000000000001
 31
0.0
  0
LINE
  5
216
  8
DATA
  6
CONTINUOUS
 62
     7
 10
180.20500000000001
 20
140.44999999999999
 30
0.0
 11
178.0
 21
146.75
 31
0.0
  0
LINE
  5
217
  8
DATA
  6
CONTINUOUS
 62
     7
 10
215.0
 20
126.75
 30
0.0
 11
219.69
 21
140.15000000000001
 31
0.0
  0
LINE
  5
218
  8
DATA
  6
CONTINUOUS
 62
     7
 10
219.79499999999999
 20
140.44999999999999
 30
0.0
 11
222.0
 21
146.75
 31
0.0
  0
LINE
  5
219
  8
DATA
  6
CONTINUOUS
 62
     7
 10
219.79499999999999
 20
140.44999999999999
 30
0.0
 11
180.20500000000001
 21
140.44999999999999
 31
0.0
  0
LINE
  5
21A
  8
DATA
  6
CONTINUOUS
 62
     7
 10
219.69
 20
140.15000000000001
 30
0.0
 11
180.31
 21
140.15000000000001
 31
0.0
  0
LINE
  5
21B
  8
DATA
  6
CONTINUOUS
 62
     7
 10
185.0
 20
126.75
 30
0.0
 11
215.0
 21
126.75
 31
0.0
  0
LINE
  5
21C
  8
DATA
  6
CONTINUOUS
 62
     7
 10
183.5
 20
140.15000000000001
 30
0.0
 11
183.5
 21
140.44999999999999
 31
0.0
  0
LINE
  5
21D
  8
DATA
  6
CONTINUOUS
 62
     7
 10
216.5
 20
140.15000000000001
 30
0.0
 11
216.5
 21
140.44999999999999
 31
0.0
  0
LINE
  5
21E
  8
DATA
  6
CONTINUOUS
 62
     7
 10
188.25
 20
21.75
 30
0.0
 11
211.75
 21
21.75
 31
0.0
  0
ARC
  5
21F
  8
DATA
  6
CONTINUOUS
 62
     7
 10
59.530982377202932
 20
106.94347031621039
 30
0.0
 40
27.580812584420521
 50
342.7182113978559
 51
20.8275381452105
  0
LINE
  5
220
  8
DATA
  6
CONTINUOUS
 62
     7
 10
86.26590764241827
 20
100.1651966510169
 30
0.0
 11
85.795524091718192
 21
115.3622036736346
 31
0.0
  0
CIRCLE
  5
221
  8
DATA
  6
CONTINUOUS
 62
     7
 10
200.0
 20
35.75
 30
0.0
 40
2.3499999999999939
  0
LINE
  5
222
  8
DATA
  6
CONTINUOUS
 62
     7
 10
198.75
 20
35.75
 30
0.0
 11
201.25
 21
35.75
 31
0.0
  0
LINE
  5
223
  8
DATA
  6
CONTINUOUS
 62
     7
 10
200.0
 20
34.499999999999993
 30
0.0
 11
200.0
 21
37.000000000000007
 31
0.0
  0
CIRCLE
  5
224
  8
DATA
  6
CONTINUOUS
 62
     7
 10
25.0
 20
-31.25
 30
0.0
 40
23.5
  0
CIRCLE
  5
225
  8
DATA
  6
CONTINUOUS
 62
     7
 10
25.0
 20
-31.25
 30
0.0
 40
15.0
  0
CIRCLE
  5
226
  8
DATA
  6
CONTINUOUS
 62
     7
 10
25.0
 20
250.0
 30
0.0
 40
25.5
  0
ARC
  5
227
  8
DATA
  6
CONTINUOUS
 62
     7
 10
24.999999999999989
 20
250.00000000000011
 30
0.0
 40
24.000000000000011
 50
215.3071914203523
 51
204.6928085796506
  0
CIRCLE
  5
228
  8
DATA
  6
CONTINUOUS
 62
     7
 10
25.0
 20
250.0
 30
0.0
 40
17.5
  0
CIRCLE
  5
229
  8
DATA
  6
CONTINUOUS
 62
     7
 10
25.0
 20
250.0
 30
0.0
 40
19.5
  0
LINE
  5
22A
  8
DATA
  6
CONTINUOUS
 62
     7
 10
5.4144386931705091
 20
236.12895864412371
 30
0.0
 11
3.1945451554511939
 21
239.97392703884751
 31
0.0
  0
LINE
  5
22B
  8
DATA
  6
CONTINUOUS
 62
     7
 10
3.0
 20
146.75
 30
0.0
 11
47.0
 21
146.75
 31
0.0
  0
LINE
  5
22C
  8
DATA
  6
CONTINUOUS
 62
     7
 10
3.0
 20
146.75
 30
0.0
 11
3.5
 21
147.75
 31
0.0
  0
LINE
  5
22D
  8
DATA
  6
CONTINUOUS
 62
     7
 10
47.0
 20
146.75
 30
0.0
 11
46.5
 21
147.75
 31
0.0
  0
LINE
  5
22E
  8
DATA
  6
CONTINUOUS
 62
     7
 10
46.5
 20
147.75
 30
0.0
 11
3.5
 21
147.75
 31
0.0
  0
LINE
  5
22F
  8
DATA
  6
CONTINUOUS
 62
     7
 10
78.0
 20
146.75
 30
0.0
 11
122.0
 21
146.75
 31
0.0
  0
LINE
  5
230
  8
DATA
  6
CONTINUOUS
 62
     7
 10
78.0
 20
146.75
 30
0.0
 11
78.5
 21
147.75
 31
0.0
  0
LINE
  5
231
  8
DATA
  6
CONTINUOUS
 62
     7
 10
122.0
 20
146.75
 30
0.0
 11
121.5
 21
147.75
 31
0.0
  0
LINE
  5
232
  8
DATA
  6
CONTINUOUS
 62
     7
 10
121.5
 20
147.75
 30
0.0
 11
78.5
 21
147.75
 31
0.0
  0
LINE
  5
233
  8
DATA
  6
CONTINUOUS
 62
     7
 10
178.0
 20
146.75
 30
0.0
 11
222.0
 21
146.75
 31
0.0
  0
LINE
  5
234
  8
DATA
  6
CONTINUOUS
 62
     7
 10
178.0
 20
146.75
 30
0.0
 11
178.5
 21
147.75
 31
0.0
  0
LINE
  5
235
  8
DATA
  6
CONTINUOUS
 62
     7
 10
222.0
 20
146.75
 30
0.0
 11
221.5
 21
147.75
 31
0.0
  0
LINE
  5
236
  8
DATA
  6
CONTINUOUS
 62
     7
 10
221.5
 20
147.75
 30
0.0
 11
178.5
 21
147.75
 31
0.0
  0
LINE
  5
237
  8
DATA
  6
CONTINUOUS
 62
     7
 10
-0.5
 20
164.75
 30
0.0
 11
0.0
 21
165.75
 31
0.0
  0
LINE
  5
238
  8
DATA
  6
CONTINUOUS
 62
     7
 10
0.0
 20
165.75
 30
0.0
 11
50.0
 21
165.75
 31
0.0
  0
LINE
  5
239
  8
DATA
  6
CONTINUOUS
 62
     7
 10
1.5
 20
155.75
 30
0.0
 11
-0.5
 21
164.75
 31
0.0
  0
LINE
  5
23A
  8
DATA
  6
CONTINUOUS
 62
     7
 10
2.5
 20
155.75
 30
0.0
 11
3.5
 21
147.75
 31
0.0
  0
LINE
  5
23B
  8
DATA
  6
CONTINUOUS
 62
     7
 10
47.5
 20
155.75
 30
0.0
 11
46.5
 21
147.75
 31
0.0
  0
LINE
  5
23C
  8
DATA
  6
CONTINUOUS
 62
     7
 10
1.5
 20
155.75
 30
0.0
 11
48.5
 21
155.75
 31
0.0
  0
LINE
  5
23D
  8
DATA
  6
CONTINUOUS
 62
     7
 10
77.5
 20
155.75
 30
0.0
 11
78.5
 21
147.75
 31
0.0
  0
LINE
  5
23E
  8
DATA
  6
CONTINUOUS
 62
     7
 10
122.5
 20
155.75
 30
0.0
 11
121.5
 21
147.75
 31
0.0
  0
LINE
  5
23F
  8
DATA
  6
CONTINUOUS
 62
     7
 10
177.5
 20
155.75
 30
0.0
 11
178.5
 21
147.75
 31
0.0
  0
LINE
  5
240
  8
DATA
  6
CONTINUOUS
 62
     7
 10
222.5
 20
155.75
 30
0.0
 11
221.5
 21
147.75
 31
0.0
  0
LINE
  5
241
  8
DATA
  6
CONTINUOUS
 62
     7
 10
50.5
 20
164.75
 30
0.0
 11
50.0
 21
165.75
 31
0.0
  0
LINE
  5
242
  8
DATA
  6
CONTINUOUS
 62
     7
 10
48.5
 20
155.75
 30
0.0
 11
50.5
 21
164.75
 31
0.0
  0
LINE
  5
243
  8
DATA
  6
CONTINUOUS
 62
     7
 10
74.5
 20
164.75
 30
0.0
 11
75.0
 21
165.75
 31
0.0
  0
LINE
  5
244
  8
DATA
  6
CONTINUOUS
 62
     7
 10
75.0
 20
165.75
 30
0.0
 11
125.0
 21
165.75
 31
0.0
  0
LINE
  5
245
  8
DATA
  6
CONTINUOUS
 62
     7
 10
76.5
 20
155.75
 30
0.0
 11
74.5
 21
164.75
 31
0.0
  0
LINE
  5
246
  8
DATA
  6
CONTINUOUS
 62
     7
 10
123.5
 20
155.75
 30
0.0
 11
125.5
 21
164.75
 31
0.0
  0
LINE
  5
247
  8
DATA
  6
CONTINUOUS
 62
     7
 10
76.5
 20
155.75
 30
0.0
 11
123.5
 21
155.75
 31
0.0
  0
LINE
  5
248
  8
DATA
  6
CONTINUOUS
 62
     7
 10
125.5
 20
164.75
 30
0.0
 11
125.0
 21
165.75
 31
0.0
  0
LINE
  5
249
  8
DATA
  6
CONTINUOUS
 62
     7
 10
174.5
 20
164.75
 30
0.0
 11
175.0
 21
165.75
 31
0.0
  0
LINE
  5
24A
  8
DATA
  6
CONTINUOUS
 62
     7
 10
175.0
 20
165.75
 30
0.0
 11
225.0
 21
165.75
 31
0.0
  0
LINE
  5
24B
  8
DATA
  6
CONTINUOUS
 62
     7
 10
225.5
 20
164.75
 30
0.0
 11
225.0
 21
165.75
 31
0.0
  0
LINE
  5
24C
  8
DATA
  6
CONTINUOUS
 62
     7
 10
176.5
 20
155.75
 30
0.0
 11
174.5
 21
164.75
 31
0.0
  0
LINE
  5
24D
  8
DATA
  6
CONTINUOUS
 62
     7
 10
223.5
 20
155.75
 30
0.0
 11
225.5
 21
164.75
 31
0.0
  0
LINE
  5
24E
  8
DATA
  6
CONTINUOUS
 62
     7
 10
176.5
 20
155.75
 30
0.0
 11
223.5
 21
155.75
 31
0.0
  0
LINE
  5
24F
  8
DATA
  6
CONTINUOUS
 62
     7
 10
182.5
 20
204.75
 30
0.0
 11
217.5
 21
204.75
 31
0.0
  0
LINE
  5
250
  8
DATA
  6
CONTINUOUS
 62
     7
 10
180.5
 20
202.09138106510741
 30
0.0
 11
182.5
 21
204.75
 31
0.0
  0
LINE
  5
251
  8
DATA
  6
CONTINUOUS
 62
     7
 10
176.0
 20
165.75
 30
0.0
 11
180.5
 21
202.09138106510741
 31
0.0
  0
LINE
  5
252
  8
DATA
  6
CONTINUOUS
 62
     7
 10
224.0
 20
165.75
 30
0.0
 11
219.5
 21
202.09138106510741
 31
0.0
  0
LINE
  5
253
  8
DATA
  6
CONTINUOUS
 62
     7
 10
219.5
 20
202.09138106510741
 30
0.0
 11
217.5
 21
204.75
 31
0.0
  0
LINE
  5
254
  8
DATA
  6
CONTINUOUS
 62
     7
 10
7.4999999999999867
 20
204.75
 30
0.0
 11
42.5
 21
204.75
 31
0.0
  0
LINE
  5
255
  8
DATA
  6
CONTINUOUS
 62
     7
 10
5.5
 20
202.09138106510741
 30
0.0
 11
7.5
 21
204.75
 31
0.0
  0
LINE
  5
256
  8
DATA
  6
CONTINUOUS
 62
     7
 10
44.5
 20
202.09138106510741
 30
0.0
 11
42.5
 21
204.75
 31
0.0
  0
LINE
  5
257
  8
DATA
  6
CONTINUOUS
 62
     7
 10
1.0
 20
165.75
 30
0.0
 11
5.5
 21
202.09138106510741
 31
0.0
  0
LINE
  5
258
  8
DATA
  6
CONTINUOUS
 62
     7
 10
49.0
 20
165.75
 30
0.0
 11
44.5
 21
202.09138106510741
 31
0.0
  0
LINE
  5
259
  8
DATA
  6
CONTINUOUS
 62
     7
 10
82.499999999999986
 20
204.75
 30
0.0
 11
117.5
 21
204.75
 31
0.0
  0
LINE
  5
25A
  8
DATA
  6
CONTINUOUS
 62
     7
 10
80.5
 20
202.09138106510741
 30
0.0
 11
82.5
 21
204.75
 31
0.0
  0
LINE
  5
25B
  8
DATA
  6
CONTINUOUS
 62
     7
 10
119.5
 20
202.09138106510741
 30
0.0
 11
117.5
 21
204.75
 31
0.0
  0
LINE
  5
25C
  8
DATA
  6
CONTINUOUS
 62
     7
 10
76.0
 20
165.75
 30
0.0
 11
80.5
 21
202.09138106510741
 31
0.0
  0
LINE
  5
25D
  8
DATA
  6
CONTINUOUS
 62
     7
 10
124.0
 20
165.75
 30
0.0
 11
119.5
 21
202.09138106510741
 31
0.0
  0
ENDSEC
  0
EOF
